  0
SECTION
  2
HEADER
  9
$ACADVER
  1
AC1018
  9
$ACADMAINTVER
 70
   104
  9
$DWGCODEPAGE
  3
ANSI_1252
  9
$LASTSAVEDBY
  1
lengelbach
  9
$INSBASE
 10
0.0
 20
0.0
 30
0.0
  9
$EXTMIN
 10
0.0
 20
0.0
 30
0.0
  9
$EXTMAX
 10
479.7002896573665
 20
296.9999999999999
 30
0.0
  9
$LIMMIN
 10
6.0
 20
6.0
  9
$LIMMAX
 10
203.9999999999999
 20
290.9999999999999
  9
$ORTHOMODE
 70
     1
  9
$REGENMODE
 70
     1
  9
$FILLMODE
 70
     1
  9
$QTEXTMODE
 70
     0
  9
$MIRRTEXT
 70
     0
  9
$LTSCALE
 40
10.0
  9
$ATTMODE
 70
     1
  9
$TEXTSIZE
 40
2.5
  9
$TRACEWID
 40
1.0
  9
$TEXTSTYLE
  7
RomanS
  9
$CLAYER
  8
Oberfläche
  9
$CELTYPE
  6
ByLayer
  9
$CECOLOR
 62
   256
  9
$CELTSCALE
 40
1.0
  9
$DISPSILH
 70
     0
  9
$DIMSCALE
 40
1.0
  9
$DIMASZ
 40
2.5
  9
$DIMEXO
 40
0.625
  9
$DIMDLI
 40
3.75
  9
$DIMRND
 40
0.0
  9
$DIMDLE
 40
0.0
  9
$DIMEXE
 40
1.25
  9
$DIMTP
 40
0.0
  9
$DIMTM
 40
0.0
  9
$DIMTXT
 40
2.5
  9
$DIMCEN
 40
2.5
  9
$DIMTSZ
 40
0.0
  9
$DIMTOL
 70
     0
  9
$DIMLIM
 70
     0
  9
$DIMTIH
 70
     0
  9
$DIMTOH
 70
     0
  9
$DIMSE1
 70
     0
  9
$DIMSE2
 70
     0
  9
$DIMTAD
 70
     1
  9
$DIMZIN
 70
     8
  9
$DIMBLK
  1
Oblique
  9
$DIMASO
 70
     1
  9
$DIMSHO
 70
     1
  9
$DIMPOST
  1

  9
$DIMAPOST
  1

  9
$DIMALT
 70
     0
  9
$DIMALTD
 70
     3
  9
$DIMALTF
 40
0.03937007874016
  9
$DIMLFAC
 40
1.0
  9
$DIMTOFL
 70
     1
  9
$DIMTVP
 40
0.0
  9
$DIMTIX
 70
     0
  9
$DIMSOXD
 70
     0
  9
$DIMSAH
 70
     0
  9
$DIMBLK1
  1

  9
$DIMBLK2
  1

  9
$DIMSTYLE
  2
IDEAL Holz
  9
$DIMCLRD
 70
     0
  9
$DIMCLRE
 70
     0
  9
$DIMCLRT
 70
     0
  9
$DIMTFAC
 40
1.0
  9
$DIMGAP
 40
0.625
  9
$DIMJUST
 70
     0
  9
$DIMSD1
 70
     0
  9
$DIMSD2
 70
     0
  9
$DIMTOLJ
 70
     0
  9
$DIMTZIN
 70
     8
  9
$DIMALTZ
 70
     0
  9
$DIMALTTZ
 70
     0
  9
$DIMUPT
 70
     0
  9
$DIMDEC
 70
     1
  9
$DIMTDEC
 70
     1
  9
$DIMALTU
 70
     2
  9
$DIMALTTD
 70
     3
  9
$DIMTXSTY
  7
RomanS
  9
$DIMAUNIT
 70
     0
  9
$DIMADEC
 70
     0
  9
$DIMALTRND
 40
0.0
  9
$DIMAZIN
 70
     0
  9
$DIMDSEP
 70
    44
  9
$DIMATFIT
 70
     3
  9
$DIMFRAC
 70
     0
  9
$DIMLDRBLK
  1
Oblique
  9
$DIMLUNIT
 70
     2
  9
$DIMLWD
 70
    -2
  9
$DIMLWE
 70
    -2
  9
$DIMTMOVE
 70
     0
  9
$LUNITS
 70
     2
  9
$LUPREC
 70
     4
  9
$SKETCHINC
 40
1.0
  9
$FILLETRAD
 40
1.0
  9
$AUNITS
 70
     0
  9
$AUPREC
 70
     0
  9
$MENU
  1
.
  9
$ELEVATION
 40
0.0
  9
$PELEVATION
 40
0.0
  9
$THICKNESS
 40
0.0
  9
$LIMCHECK
 70
     0
  9
$CHAMFERA
 40
0.5
  9
$CHAMFERB
 40
0.5
  9
$CHAMFERC
 40
0.0
  9
$CHAMFERD
 40
0.0
  9
$SKPOLY
 70
     0
  9
$TDCREATE
 40
2454513.407853310
  9
$TDUCREATE
 40
2454513.366186644
  9
$TDUPDATE
 40
2455232.580331377
  9
$TDUUPDATE
 40
2455232.538664711
  9
$TDINDWG
 40
0.4421736227
  9
$TDUSRTIMER
 40
0.4421412500
  9
$USRTIMER
 70
     1
  9
$ANGBASE
 50
0.0
  9
$ANGDIR
 70
     0
  9
$PDMODE
 70
     0
  9
$PDSIZE
 40
0.0
  9
$PLINEWID
 40
0.0
  9
$SPLFRAME
 70
     0
  9
$SPLINETYPE
 70
     6
  9
$SPLINESEGS
 70
     8
  9
$HANDSEED
  5
F96F
  9
$SURFTAB1
 70
     6
  9
$SURFTAB2
 70
     6
  9
$SURFTYPE
 70
     6
  9
$SURFU
 70
     6
  9
$SURFV
 70
     6
  9
$UCSBASE
  2

  9
$UCSNAME
  2

  9
$UCSORG
 10
0.0
 20
0.0
 30
0.0
  9
$UCSXDIR
 10
1.0
 20
0.0
 30
0.0
  9
$UCSYDIR
 10
0.0
 20
1.0
 30
0.0
  9
$UCSORTHOREF
  2

  9
$UCSORTHOVIEW
 70
     0
  9
$UCSORGTOP
 10
0.0
 20
0.0
 30
0.0
  9
$UCSORGBOTTOM
 10
0.0
 20
0.0
 30
0.0
  9
$UCSORGLEFT
 10
0.0
 20
0.0
 30
0.0
  9
$UCSORGRIGHT
 10
0.0
 20
0.0
 30
0.0
  9
$UCSORGFRONT
 10
0.0
 20
0.0
 30
0.0
  9
$UCSORGBACK
 10
0.0
 20
0.0
 30
0.0
  9
$PUCSBASE
  2

  9
$PUCSNAME
  2

  9
$PUCSORG
 10
0.0
 20
0.0
 30
0.0
  9
$PUCSXDIR
 10
1.0
 20
0.0
 30
0.0
  9
$PUCSYDIR
 10
0.0
 20
1.0
 30
0.0
  9
$PUCSORTHOREF
  2

  9
$PUCSORTHOVIEW
 70
     0
  9
$PUCSORGTOP
 10
0.0
 20
0.0
 30
0.0
  9
$PUCSORGBOTTOM
 10
0.0
 20
0.0
 30
0.0
  9
$PUCSORGLEFT
 10
0.0
 20
0.0
 30
0.0
  9
$PUCSORGRIGHT
 10
0.0
 20
0.0
 30
0.0
  9
$PUCSORGFRONT
 10
0.0
 20
0.0
 30
0.0
  9
$PUCSORGBACK
 10
0.0
 20
0.0
 30
0.0
  9
$USERI1
 70
     0
  9
$USERI2
 70
     0
  9
$USERI3
 70
     0
  9
$USERI4
 70
     0
  9
$USERI5
 70
     0
  9
$USERR1
 40
0.0
  9
$USERR2
 40
0.0
  9
$USERR3
 40
0.0
  9
$USERR4
 40
0.0
  9
$USERR5
 40
0.0
  9
$WORLDVIEW
 70
     1
  9
$SHADEDGE
 70
     3
  9
$SHADEDIF
 70
    70
  9
$TILEMODE
 70
     1
  9
$MAXACTVP
 70
    64
  9
$PINSBASE
 10
0.0
 20
0.0
 30
0.0
  9
$PLIMCHECK
 70
     0
  9
$PEXTMIN
 10
-6.000000278478736
 20
-6.000000213669209
 30
0.0
  9
$PEXTMAX
 10
203.9733265301375
 20
291.0318296783675
 30
0.0
  9
$PLIMMIN
 10
-5.999999999999997
 20
-5.999999999999997
  9
$PLIMMAX
 10
203.9733276367186
 20
291.0318298339844
  9
$UNITMODE
 70
     0
  9
$VISRETAIN
 70
     1
  9
$PLINEGEN
 70
     0
  9
$PSLTSCALE
 70
     1
  9
$TREEDEPTH
 70
  3020
  9
$CMLSTYLE
  2
Standard
  9
$CMLJUST
 70
     0
  9
$CMLSCALE
 40
20.0
  9
$PROXYGRAPHICS
 70
     1
  9
$MEASUREMENT
 70
     1
  9
$CELWEIGHT
370
    -1
  9
$ENDCAPS
280
     0
  9
$JOINSTYLE
280
     0
  9
$LWDISPLAY
290
     0
  9
$INSUNITS
 70
     4
  9
$HYPERLINKBASE
  1

  9
$STYLESHEET
  1
GRAYSCALE.CTB
  9
$XEDIT
290
     1
  9
$CEPSNTYPE
380
     0
  9
$PSTYLEMODE
290
     1
  9
$FINGERPRINTGUID
  2
{C43F7AFB-E6F1-4957-9446-85D1CB022340}
  9
$VERSIONGUID
  2
{25A437B1-8E15-4D95-A0DD-608F0CA450F9}
  9
$EXTNAMES
290
     1
  9
$PSVPSCALE
 40
1.0
  9
$OLESTARTUP
290
     0
  9
$SORTENTS
280
   127
  9
$INDEXCTL
280
     0
  9
$HIDETEXT
280
     1
  9
$XCLIPFRAME
290
     0
  9
$HALOGAP
280
     0
  9
$OBSCOLOR
 70
   257
  9
$OBSLTYPE
280
     0
  9
$INTERSECTIONDISPLAY
280
     0
  9
$INTERSECTIONCOLOR
 70
   257
  9
$DIMASSOC
280
     2
  9
$PROJECTNAME
  1

  0
ENDSEC
  0
SECTION
  2
CLASSES
  0
CLASS
  1
ACDBDICTIONARYWDFLT
  2
AcDbDictionaryWithDefault
  3
ObjectDBX Classes
 90
        0
 91
        1
280
     0
281
     0
  0
CLASS
  1
DICTIONARYVAR
  2
AcDbDictionaryVar
  3
ObjectDBX Classes
 90
        0
 91
        9
280
     0
281
     0
  0
CLASS
  1
TABLESTYLE
  2
AcDbTableStyle
  3
ObjectDBX Classes
 90
     4095
 91
        1
280
     0
281
     0
  0
CLASS
  1
MATERIAL
  2
AcDbMaterial
  3
ObjectDBX Classes
 90
     1024
 91
        3
280
     0
281
     0
  0
CLASS
  1
VISUALSTYLE
  2
AcDbVisualStyle
  3
ObjectDBX Classes
 90
     4095
 91
       16
280
     0
281
     0
  0
CLASS
  1
SORTENTSTABLE
  2
AcDbSortentsTable
  3
ObjectDBX Classes
 90
        0
 91
        1
280
     0
281
     0
  0
CLASS
  1
DIMASSOC
  2
AcDbDimAssoc
  3
"AcDbDimAssoc|Product Desc:     AcDim ARX App For Dimension|Company:          Autodesk, Inc.|WEB Address:      www.autodesk.com"
 90
        0
 91
        0
280
     0
281
     0
  0
CLASS
  1
ACAD_EVALUATION_GRAPH
  2
AcDbEvalGraph
  3
ObjectDBX Classes
 90
     1153
 91
        0
280
     0
281
     0
  0
CLASS
  1
ACAECUSTOBJ
  2
AcAeEditorObj
  3
AcAeEditorObj
 90
     1024
 91
        0
280
     0
281
     0
  0
CLASS
  1
ACDB_DYNAMICBLOCKPURGEPREVENTER_VERSION
  2
AcDbDynamicBlockPurgePreventer
  3
ObjectDBX Classes
 90
     1153
 91
        0
280
     0
281
     0
  0
CLASS
  1
ACDB_BLOCKREPRESENTATION_DATA
  2
AcDbBlockRepresentationData
  3
ObjectDBX Classes
 90
     1153
 91
        0
280
     0
281
     0
  0
ENDSEC
  0
SECTION
  2
TABLES
  0
TABLE
  2
VPORT
  5
8
330
0
100
AcDbSymbolTable
 70
     1
  0
VPORT
  5
EA
330
8
100
AcDbSymbolTableRecord
100
AcDbViewportTableRecord
  2
*Active
 70
     0
 10
0.0
 20
0.0
 11
1.0
 21
1.0
 12
278.5548743629149
 22
148.5028858297926
 13
0.0
 23
0.0
 14
10.0
 24
10.0
 15
10.0
 25
10.0
 16
0.0
 26
0.0
 36
1.0
 17
0.0
 27
0.0
 37
0.0
 40
300.882022864421
 41
2.134130146082337
 42
50.0
 43
0.0
 44
0.0
 50
0.0
 51
0.0
 71
     0
 72
  1000
 73
     1
 74
     3
 75
     0
 76
     0
 77
     0
 78
     0
281
     0
 65
     1
110
0.0
120
0.0
130
0.0
111
1.0
121
0.0
131
0.0
112
0.0
122
1.0
132
0.0
 79
     0
146
0.0
  0
ENDTAB
  0
TABLE
  2
LTYPE
  5
5
330
0
100
AcDbSymbolTable
 70
     3
  0
LTYPE
  5
14
330
5
100
AcDbSymbolTableRecord
100
AcDbLinetypeTableRecord
  2
ByBlock
 70
     0
  3

 72
    65
 73
     0
 40
0.0
  0
LTYPE
  5
15
330
5
100
AcDbSymbolTableRecord
100
AcDbLinetypeTableRecord
  2
ByLayer
 70
     0
  3

 72
    65
 73
     0
 40
0.0
  0
LTYPE
  5
16
330
5
100
AcDbSymbolTableRecord
100
AcDbLinetypeTableRecord
  2
Continuous
 70
     0
  3
Solid line
 72
    65
 73
     0
 40
0.0
  0
LTYPE
  5
87A3
330
5
100
AcDbSymbolTableRecord
100
AcDbLinetypeTableRecord
  2
VERDECKT
 70
     0
  3
Verdeckt __ __ __ __ __ __ __ __ __ __ __ __ __
 72
    65
 73
     2
 40
0.375
 49
0.25
 74
     0
 49
-0.125
 74
     0
  0
LTYPE
  5
95C0
330
5
100
AcDbSymbolTableRecord
100
AcDbLinetypeTableRecord
  2
VONLAYER
 70
     0
  3
Solid line
 72
    65
 73
     0
 40
0.0
  0
ENDTAB
  0
TABLE
  2
LAYER
  5
2
102
{ACAD_XDICTIONARY
360
120
102
}
330
0
100
AcDbSymbolTable
 70
     7
  0
LAYER
  5
10
330
2
100
AcDbSymbolTableRecord
100
AcDbLayerTableRecord
  2
0
 70
     0
 62
     7
  6
Continuous
370
    -3
390
F
  0
LAYER
  5
12AC
330
2
100
AcDbSymbolTableRecord
100
AcDbLayerTableRecord
  2
Defpoints
 70
     0
 62
     7
  6
Continuous
290
     0
370
    -3
390
F
  0
LAYER
  5
87AE
330
2
100
AcDbSymbolTableRecord
100
AcDbLayerTableRecord
  2
Schraffur
 70
     0
 62
   251
  6
Continuous
370
    -3
390
F
1001
AcAecLayerStandard
1000

1000

  0
LAYER
  5
87B0
330
2
100
AcDbSymbolTableRecord
100
AcDbLayerTableRecord
  2
Bemaßung
 70
     0
 62
     1
  6
Continuous
370
    -3
390
F
1001
AcAecLayerStandard
1000

1000

  0
LAYER
  5
8EB4
330
2
100
AcDbSymbolTableRecord
100
AcDbLayerTableRecord
  2
Zusatzprofile
 70
     0
 62
    54
  6
Continuous
370
    -3
390
F
1001
AcAecLayerStandard
1000

1000

  0
LAYER
  5
EB98
330
2
100
AcDbSymbolTableRecord
100
AcDbLayerTableRecord
  2
Text
 70
     0
 62
     7
  6
Continuous
370
    -3
390
F
1001
AcAecLayerStandard
1000

1000

  0
LAYER
  5
EB99
330
2
100
AcDbSymbolTableRecord
100
AcDbLayerTableRecord
  2
Oberfläche
 70
     0
 62
   250
  6
VERDECKT
370
    -3
390
F
1001
AcAecLayerStandard
1000

1000

  0
ENDTAB
  0
TABLE
  2
STYLE
  5
3
330
0
100
AcDbSymbolTable
 70
     2
  0
STYLE
  5
11
330
3
100
AcDbSymbolTableRecord
100
AcDbTextStyleTableRecord
  2
Standard
 70
     0
 40
0.0
 41
1.0
 50
0.0
 71
     0
 42
2.5
  3
txt
  4

  0
STYLE
  5
11D
330
3
100
AcDbSymbolTableRecord
100
AcDbTextStyleTableRecord
  2
RomanS
 70
     0
 40
0.0
 41
0.7
 50
0.0
 71
     0
 42
2.5
  3
romans.shx
  4

  0
ENDTAB
  0
TABLE
  2
VIEW
  5
6
330
0
100
AcDbSymbolTable
 70
     0
  0
ENDTAB
  0
TABLE
  2
UCS
  5
7
330
0
100
AcDbSymbolTable
 70
     0
  0
ENDTAB
  0
TABLE
  2
APPID
  5
9
330
0
100
AcDbSymbolTable
 70
     9
  0
APPID
  5
12
330
9
100
AcDbSymbolTableRecord
100
AcDbRegAppTableRecord
  2
ACAD
 70
     0
  0
APPID
  5
9E
330
9
100
AcDbSymbolTableRecord
100
AcDbRegAppTableRecord
  2
ACAD_PSEXT
 70
     0
  0
APPID
  5
1B4
330
9
100
AcDbSymbolTableRecord
100
AcDbRegAppTableRecord
  2
AcAecLayerStandard
 70
     0
  0
APPID
  5
3F2
330
9
100
AcDbSymbolTableRecord
100
AcDbRegAppTableRecord
  2
AcDbBlockRepETag
 70
     0
  0
APPID
  5
722
330
9
100
AcDbSymbolTableRecord
100
AcDbRegAppTableRecord
  2
ACAD_EXEMPT_FROM_CAD_STANDARDS
 70
     0
  0
APPID
  5
12AF
330
9
100
AcDbSymbolTableRecord
100
AcDbRegAppTableRecord
  2
AcDbDynamicBlockGUID
 70
     0
  0
APPID
  5
17A4
330
9
100
AcDbSymbolTableRecord
100
AcDbRegAppTableRecord
  2
ACAUTHENVIRON
 70
     0
  0
APPID
  5
17AA
330
9
100
AcDbSymbolTableRecord
100
AcDbRegAppTableRecord
  2
AcDbDynamicBlockTrueName
 70
     0
  0
APPID
  5
186B
330
9
100
AcDbSymbolTableRecord
100
AcDbRegAppTableRecord
  2
AcDbBlockRepBTag
 70
     0
  0
ENDTAB
  0
TABLE
  2
DIMSTYLE
  5
A
330
0
100
AcDbSymbolTable
 70
     2
100
AcDbDimStyleTable
 71
     1
340
142C
  0
DIMSTYLE
105
11E
330
A
100
AcDbSymbolTableRecord
100
AcDbDimStyleTableRecord
  2
Standard
 70
     0
 41
0.5
 42
1.0
 43
2.0
 44
0.2
140
1.5
147
1.0
172
     1
271
     1
272
     1
340
11
371
     5
372
     5
  0
DIMSTYLE
105
142C
330
A
100
AcDbSymbolTableRecord
100
AcDbDimStyleTableRecord
  2
IDEAL Holz
 70
     0
 41
2.5
 42
0.625
 43
3.75
 44
1.25
 73
     0
 74
     0
 77
     1
 78
     8
140
2.5
141
2.5
143
0.03937007874016
147
0.625
171
     3
172
     1
271
     1
272
     1
274
     3
278
    44
283
     0
284
     8
340
11D
341
117
342
117
  0
ENDTAB
  0
TABLE
  2
BLOCK_RECORD
  5
1
330
0
100
AcDbSymbolTable
 70
     1
  0
BLOCK_RECORD
  5
1F
102
{ACAD_XDICTIONARY
360
732
102
}
330
1
100
AcDbSymbolTableRecord
100
AcDbBlockTableRecord
  2
*Model_Space
340
22
  0
BLOCK_RECORD
  5
D2
330
1
100
AcDbSymbolTableRecord
100
AcDbBlockTableRecord
  2
*Paper_Space
340
D3
  0
BLOCK_RECORD
  5
117
330
1
100
AcDbSymbolTableRecord
100
AcDbBlockTableRecord
  2
_Oblique
340
0
  0
ENDTAB
  0
ENDSEC
  0
SECTION
  2
BLOCKS
  0
BLOCK
  5
20
330
1F
100
AcDbEntity
  8
0
100
AcDbBlockBegin
  2
*Model_Space
 70
     0
 10
0.0
 20
0.0
 30
0.0
  3
*Model_Space
  1

  0
ENDBLK
  5
21
330
1F
100
AcDbEntity
  8
0
100
AcDbBlockEnd
  0
BLOCK
  5
D4
330
D2
100
AcDbEntity
 67
     1
  8
0
100
AcDbBlockBegin
  2
*Paper_Space
 70
     0
 10
0.0
 20
0.0
 30
0.0
  3
*Paper_Space
  1

  0
ENDBLK
  5
D5
330
D2
100
AcDbEntity
 67
     1
  8
0
100
AcDbBlockEnd
  0
BLOCK
  5
118
330
117
100
AcDbEntity
  8
0
 62
     1
 48
0.3
100
AcDbBlockBegin
  2
_Oblique
 70
     0
 10
0.0
 20
0.0
 30
0.0
  3
_Oblique
  1

  0
LINE
  5
119
330
117
100
AcDbEntity
  8
0
  6
ByBlock
 62
     0
370
    -2
100
AcDbLine
 10
-0.5
 20
-0.5
 30
0.0
 11
0.5
 21
0.5
 31
0.0
  0
ENDBLK
  5
11A
330
117
100
AcDbEntity
  8
0
 62
     1
 48
0.3
100
AcDbBlockEnd
  0
ENDSEC
  0
SECTION
  2
ENTITIES
  0
HATCH
  5
8F8E
330
1F
100
AcDbEntity
  8
Schraffur
 62
    54
100
AcDbHatch
 10
0.0
 20
0.0
 30
0.0
210
0.0
220
0.0
230
1.0
  2
STEEL
 70
     0
 71
     1
 91
        2
 92
        7
 72
     1
 73
     1
 93
       11
 10
54.00000000000012
 20
96.06383812525065
 42
0.0
 10
54.49999999999993
 20
96.56383812525064
 42
0.0
 10
54.50000000000023
 20
150.0638381252506
 42
0.0
 10
39.69418031673014
 20
146.6112573512524
 42
0.2976914242556853
 10
38.1711787255299
 20
145.0161413629752
 42
0.0
 10
35.59379065799112
 20
119.1940753383615
 42
-0.1886837536660262
 10
32.37168785616001
 20
112.5880241766598
 42
0.0
 10
30.50397217304698
 20
111.0474861467137
 42
0.1808947357031308
 10
29.49635063361586
 20
109.3005521284245
 42
0.0
 10
29.49986214984165
 20
96.56383810624802
 42
0.0
 10
30.00000000000035
 20
96.06383812525063
 42
0.0
 97
        1
330
8F8F
 92
       24
 93
        4
 72
     1
 10
39.50216910466707
 20
123.3856566979354
 11
48.75216910466708
 21
123.3856566979354
 72
     1
 10
48.75216910466708
 20
123.3856566979354
 11
48.75216910466708
 21
118.3261328884116
 72
     1
 10
48.75216910466708
 20
118.3261328884116
 11
39.50216910466707
 21
118.3261328884116
 72
     1
 10
39.50216910466707
 20
118.3261328884116
 11
39.50216910466707
 21
123.3856566979354
 97
        1
330
8FED
 75
     0
 76
     1
 52
90.0
 41
1.5
 77
     0
 78
     2
 53
135.0
 43
-19.99933303899792
 44
15.90999400827832
 45
-3.367596045400931
 46
-3.367596045400931
 79
     0
 53
135.0
 43
-22.38058303899777
 44
15.90999400827832
 45
-3.367596045400931
 46
-3.367596045400931
 79
     0
 47
0.3951847534476385
 98
        1
 10
44.23869765740988
 20
105.1533664836512
1001
ACAD
1010
0.0
1020
0.0
1030
0.0
  0
LWPOLYLINE
  5
8F8F
102
{ACAD_REACTORS
330
8F8E
102
}
330
1F
100
AcDbEntity
  8
Zusatzprofile
100
AcDbPolyline
 90
       11
 70
   129
 43
0.0
 10
30.00000000000034
 20
96.06383812525065
 10
54.00000000000011
 20
96.06383812525065
 10
54.49999999999993
 20
96.56383812525064
 10
54.50000000000023
 20
150.0638381252506
 10
39.69418031673014
 20
146.6112573512524
 42
0.297691424255682
 10
38.1711787255299
 20
145.0161413629753
 10
35.59379065799112
 20
119.1940753383615
 42
-0.1886837536660262
 10
32.37168785616001
 20
112.5880241766598
 10
30.50397217304698
 20
111.0474861467137
 42
0.1808947357031332
 10
29.49635063361586
 20
109.3005521284245
 10
29.49986214984165
 20
96.56383810624801
  0
MTEXT
  5
8FED
102
{ACAD_REACTORS
330
8F8E
102
}
330
1F
100
AcDbEntity
  8
Bemaßung
100
AcDbMText
 10
40.12716910466707
 20
122.7606566979354
 30
0.0
 40
2.5
 41
15.20500240567617
 71
     1
 72
     5
  1
54/25
  7
RomanS
 73
     1
 44
1.0
  0
LWPOLYLINE
  5
9237
102
{ACAD_REACTORS
330
9244
102
}
330
1F
100
AcDbEntity
  8
Zusatzprofile
100
AcDbPolyline
 90
       11
 70
   129
 43
0.0
 10
160.9999999999998
 20
192.478370833036
 10
184.9999999999998
 20
192.478370833036
 10
185.4999999999997
 20
192.978370833036
 10
185.4999999999997
 20
234.478370833036
 10
170.6941803167298
 20
231.025790059038
 42
0.297691424255682
 10
169.1711787255295
 20
229.4306740707607
 10
166.5937906579903
 20
213.6086080461469
 42
-0.1886837536660262
 10
163.3716878561588
 20
207.0025568844452
 10
161.5039721730465
 20
205.4620188544991
 42
0.1808947357031332
 10
160.4963506336153
 20
203.7150848362101
 10
160.4998508845501
 20
192.9783708108006
  0
MTEXT
  5
9239
102
{ACAD_REACTORS
330
9244
102
}
330
1F
100
AcDbEntity
  8
Bemaßung
100
AcDbMText
 10
171.1271691046666
 20
212.5617404865677
 30
0.0
 40
2.5
 41
15.20500240567617
 71
     1
 72
     5
  1
42/25
  7
RomanS
 73
     1
 44
1.0
  0
HATCH
  5
9244
330
1F
100
AcDbEntity
  8
Schraffur
 62
    54
100
AcDbHatch
 10
0.0
 20
0.0
 30
0.0
210
0.0
220
0.0
230
1.0
  2
STEEL
 70
     0
 71
     1
 91
        2
 92
        7
 72
     1
 73
     1
 93
       11
 10
166.5937906579903
 20
213.6086080461469
 42
-0.2169616491504907
 10
162.5269010774672
 20
206.3057558822705
 42
0.0
 10
161.5039721730465
 20
205.4620188544991
 42
0.1808947357031309
 10
160.4963506336153
 20
203.7150848362101
 42
0.0
 10
160.4998508845501
 20
192.9783708108006
 42
0.0
 10
160.9999999999997
 20
192.478370833036
 42
0.0
 10
184.9999999999998
 20
192.478370833036
 42
0.0
 10
185.4999999999997
 20
192.978370833036
 42
0.0
 10
185.4999999999997
 20
234.478370833036
 42
0.0
 10
170.6941803167298
 20
231.025790059038
 42
0.2976914242557347
 10
169.1711787255295
 20
229.4306740707603
 42
0.0
 97
        1
330
9237
 92
       24
 93
        4
 72
     1
 10
170.5021691046667
 20
213.1867404865677
 11
179.7521691046666
 21
213.1867404865677
 72
     1
 10
179.7521691046666
 20
213.1867404865677
 11
179.7521691046666
 21
208.1272166770439
 72
     1
 10
179.7521691046666
 20
208.1272166770439
 11
170.5021691046667
 21
208.1272166770439
 72
     1
 10
170.5021691046667
 20
208.1272166770439
 11
170.5021691046667
 21
213.1867404865677
 97
        1
330
9239
 75
     0
 76
     1
 52
90.0
 41
1.5
 77
     0
 78
     2
 53
135.0
 43
-573.4481787295806
 44
161.5638899310828
 45
-3.367596045400931
 46
-3.367596045400931
 79
     0
 53
135.0
 43
-575.8294287295807
 44
161.5638899310828
 45
-3.367596045400931
 46
-3.367596045400931
 79
     0
 47
0.219946427565637
 98
        1
 10
173.3928221884102
 20
219.2645498550683
1001
ACAD
1010
0.0
1020
0.0
1030
0.0
  0
LWPOLYLINE
  5
9595
330
1F
100
AcDbEntity
  8
Zusatzprofile
100
AcDbPolyline
 90
       14
 70
     1
 43
0.0
 10
97.5
 20
113.1744496180255
 10
97.5
 20
125.8777615172038
 42
-0.0928675255158782
 10
98.04192969547669
 20
128.7703544140789
 10
104.858044935705
 20
145.2415477793196
 42
-0.2424668944467723
 10
106.2560899839692
 20
146.4255254460876
 10
122.0128189335863
 20
150.0638381252506
 10
122.5
 20
149.6763308295835
 10
122.5
 20
139.6763764470902
 42
-0.4141172667146495
 10
121.0004474941363
 20
138.1763308295835
 10
108.9985662825782
 20
138.1763308295835
 42
0.4143099279581578
 10
107.5
 20
136.6772714353625
 10
107.5
 20
113.1744496180255
 42
-0.4143098962630923
 10
104.5008949882724
 20
110.1763308295835
 10
100.4991050117278
 20
110.1763308295835
 42
-0.4141172350447559
  0
MTEXT
  5
964E
330
1F
100
AcDbEntity
  8
Bemaßung
100
AcDbMText
 10
98.27418492838283
 20
128.0512681583593
 30
0.0
 40
2.5
 41
15.20500240567617
 71
     1
 72
     5
  1
40/25
  7
RomanS
 73
     1
 44
1.0
  0
HATCH
  5
9703
330
1F
100
AcDbEntity
  8
Schraffur
 62
    54
100
AcDbHatch
 10
0.0
 20
0.0
 30
0.0
210
0.0
220
0.0
230
1.0
  2
STEEL
 70
     0
 71
     0
 91
        2
 92
        7
 72
     1
 73
     1
 93
       13
 10
97.5
 20
113.1744496180255
 42
0.4141172350447559
 10
100.4991050117278
 20
110.1763308295835
 42
0.0
 10
104.5028671105356
 20
110.1763308295835
 42
0.4141172350446893
 10
107.5
 20
113.1744496180255
 42
0.0
 10
107.5
 20
136.6772714353625
 42
-0.4143099279581578
 10
108.9985662825782
 20
138.1763308295835
 42
0.0
 10
121.0004474941363
 20
138.1763308295835
 42
0.4141172667146494
 10
122.5
 20
139.6763764470902
 42
0.0
 10
122.5
 20
150.1763308295835
 42
0.0
 10
106.2560899839692
 20
146.4255254460876
 42
0.2424668944467723
 10
104.858044935705
 20
145.2415477793196
 42
0.0
 10
98.04192969547669
 20
128.7703544140789
 42
0.0928675255158782
 10
97.5
 20
125.8777615172038
 42
0.0
 97
        0
 92
       25
 93
        4
 72
     1
 10
97.64918492838283
 20
128.6762681583593
 11
106.8991849283828
 21
128.6762681583593
 72
     1
 10
106.8991849283828
 20
128.6762681583593
 11
106.8991849283828
 21
123.6167443488355
 72
     1
 10
106.8991849283828
 20
123.6167443488356
 11
97.64918492838283
 21
123.6167443488356
 72
     1
 10
97.64918492838283
 20
123.6167443488356
 11
97.64918492838283
 21
128.6762681583594
 97
        0
 75
     0
 76
     1
 52
0.0
 41
1.5
 77
     0
 78
     2
 53
45.0
 43
-612.8719632838842
 44
30.05998713684438
 45
-3.367596045400931
 46
3.367596045400931
 79
     0
 53
45.0
 43
-612.8719632838842
 44
32.4412371368444
 45
-3.367596045400931
 46
3.367596045400931
 79
     0
 47
0.2652749590280147
 98
        1
 10
101.0211626764383
 20
115.2906314699251
1001
ACAD
1010
0.0
1020
0.0
1030
0.0
  0
SPLINE
  5
9C85
102
{ACAD_REACTORS
330
F536
102
}
330
1F
100
AcDbEntity
  8
Zusatzprofile
100
AcDbSpline
210
0.0
220
0.0
230
1.0
 70
    11
 71
     3
 72
    80
 73
    76
 74
     0
 42
0.0000000001
 43
0.0000000001
 40
0.0
 40
0.0
 40
0.0
 40
0.0
 40
1.0
 40
1.0
 40
1.0
 40
2.0
 40
2.0
 40
2.0
 40
3.0
 40
3.0
 40
3.0
 40
4.0
 40
4.0
 40
4.0
 40
5.0
 40
5.0
 40
5.0
 40
6.0
 40
6.0
 40
6.0
 40
7.0
 40
7.0
 40
7.0
 40
8.0
 40
8.0
 40
8.0
 40
9.0
 40
9.0
 40
9.0
 40
10.0
 40
10.0
 40
10.0
 40
11.0
 40
11.0
 40
11.0
 40
12.0
 40
12.0
 40
12.0
 40
13.0
 40
13.0
 40
13.0
 40
14.0
 40
14.0
 40
14.0
 40
15.0
 40
15.0
 40
15.0
 40
16.0
 40
16.0
 40
16.0
 40
17.0
 40
17.0
 40
17.0
 40
18.0
 40
18.0
 40
18.0
 40
19.0
 40
19.0
 40
19.0
 40
20.0
 40
20.0
 40
20.0
 40
21.0
 40
21.0
 40
21.0
 40
22.0
 40
22.0
 40
22.0
 40
23.0
 40
23.0
 40
23.0
 40
24.0
 40
24.0
 40
24.0
 40
25.0
 40
25.0
 40
25.0
 40
25.0
 10
100.053064906469
 20
59.31837668244452
 30
0.0
 10
100.053064906469
 20
59.31837668244452
 30
0.0
 10
102.0772882003098
 20
56.70784364527161
 30
0.0
 10
102.0772882003098
 20
56.70784364527161
 30
0.0
 10
102.0772882003098
 20
56.70784364527161
 30
0.0
 10
100.7488454345098
 20
56.63683556870307
 30
0.0
 10
100.4889755987349
 20
56.48397095942414
 30
0.0
 10
100.2291057629609
 20
56.33159946178761
 30
0.0
 10
99.85434091440584
 20
55.91097523044857
 30
0.0
 10
99.84349245826296
 20
55.51944458603703
 30
0.0
 10
99.83313711376377
 20
55.12791394162537
 30
0.0
 10
100.1995190643908
 20
53.00063031443165
 30
0.0
 10
100.1995190643908
 20
53.00063031443165
 30
0.0
 10
100.1995190643908
 20
53.00063031443165
 30
0.0
 10
103.3041499676849
 20
50.97788635551864
 30
0.0
 10
104.9580464177568
 20
49.25988539187869
 30
0.0
 10
106.612435979471
 20
47.54139131659576
 30
0.0
 10
107.3816901422949
 20
45.35148251076156
 30
0.0
 10
107.3816901422949
 20
45.35148251076156
 30
0.0
 10
107.3816901422949
 20
45.35148251076156
 30
0.0
 10
107.4620673400769
 20
44.23409152809575
 30
0.0
 10
107.4620673400769
 20
44.23409152809575
 30
0.0
 10
107.4620673400769
 20
44.23409152809575
 30
0.0
 10
102.7834240728509
 20
44.0013428326772
 30
0.0
 10
102.7834240728509
 20
44.0013428326772
 30
0.0
 10
102.7834240728509
 20
44.0013428326772
 30
0.0
 10
102.6976226469969
 20
42.36174662024788
 30
0.0
 10
102.6976226469969
 20
42.36174662024788
 30
0.0
 10
102.6976226469969
 20
42.36174662024788
 30
0.0
 10
106.4048359778369
 20
37.62639551409529
 30
0.0
 10
106.4048359778369
 20
37.62639551409529
 30
0.0
 10
106.4048359778369
 20
37.62639551409529
 30
0.0
 10
107.8333804071328
 20
37.6273817373808
 30
0.0
 10
107.8333804071328
 20
37.6273817373808
 30
0.0
 10
107.8333804071328
 20
37.6273817373808
 30
0.0
 10
108.1139609319059
 20
18.05232885172575
 30
0.0
 10
108.1139609319059
 20
18.05232885172575
 30
0.0
 10
108.1139609319059
 20
18.05232885172575
 30
0.0
 10
104.233665414431
 20
18.08043621536762
 30
0.0
 10
103.827834532377
 20
18.05084951679725
 30
0.0
 10
103.42151053868
 20
18.02224904151261
 30
0.0
 10
102.7109366613538
 20
17.97096543065799
 30
0.0
 10
102.3849898654387
 20
16.82497397270753
 30
0.0
 10
102.0585499578819
 20
15.67898251475708
 30
0.0
 10
102.8928948575599
 20
14.00388226404345
 30
0.0
 10
102.8928948575599
 20
14.00388226404345
 30
0.0
 10
102.8928948575599
 20
14.00388226404345
 30
0.0
 10
107.8190801694898
 20
9.461337810239566
 30
0.0
 10
107.8190801694898
 20
9.461337810239566
 30
0.0
 10
107.8190801694898
 20
9.461337810239566
 30
0.0
 10
122.5
 20
9.461337810239566
 30
0.0
 10
122.5
 20
9.461337810239566
 30
0.0
 10
122.5
 20
9.461337810239566
 30
0.0
 10
122.5
 20
88.53228285061186
 30
0.0
 10
122.5
 20
88.53228285061186
 30
0.0
 10
122.5
 20
88.53228285061186
 30
0.0
 10
95.62837413530292
 20
88.2916443689081
 30
0.0
 10
94.91780025797586
 20
88.24036075805315
 30
0.0
 10
94.20722638064992
 20
88.18957025884117
 30
0.0
 10
93.50355606632296
 20
88.03769187284752
 30
0.0
 10
93.3156805304018
 20
86.3911920974184
 30
0.0
 10
93.12731188283876
 20
84.74419921034678
 30
0.0
 10
94.84629906976488
 20
83.10706855613194
 30
0.0
 10
95.65204349415898
 20
82.27173743316781
 30
0.0
 10
96.88038459646305
 20
80.99901628300836
 30
0.0
 10
97.50614327122091
 20
79.7474989334912
 30
0.0
 10
97.69056702564194
 20
78.02949796985102
 30
0.0
 10
97.880908119776
 20
76.26169273028448
 30
0.0
 10
98.01207581677092
 20
69.10171167630801
 30
0.0
 10
98.01207581677092
 20
69.10171167630801
 30
0.0
 10
98.01207581677092
 20
69.10171167630801
 30
0.0
 10
99.86173758904785
 20
69.10171167630778
 30
0.0
 10
99.86173758904785
 20
69.10171167630778
 30
0.0
 10
99.86173758904785
 20
69.10171167630778
 30
0.0
 10
100.053064906469
 20
59.31837668244452
 30
0.0
 10
100.053064906469
 20
59.31837668244452
 30
0.0
  0
MTEXT
  5
9C8B
102
{ACAD_REACTORS
330
F536
102
}
330
1F
100
AcDbEntity
  8
Bemaßung
100
AcDbMText
 10
107.6026382201837
 20
54.75089186375408
 30
0.0
 40
2.5
 41
15.20500240567617
 71
     1
 72
     5
  1
80/30
  7
RomanS
 73
     1
 44
1.0
  0
LWPOLYLINE
  5
A4A7
330
1F
100
AcDbEntity
  8
Zusatzprofile
100
AcDbPolyline
 90
       19
 70
     1
 43
0.0
 10
54.5
 20
54.64930541746525
 10
54.5
 20
54.64930541746525
 10
54.5
 20
50.64930541746526
 10
54.5
 20
50.64930541746526
 10
54.5
 20
43.64930541746526
 42
-0.4142135623730959
 10
51.49999999999983
 20
40.64930541746526
 10
38.98369034720861
 20
40.64930541746526
 42
-0.3835029198984378
 10
38.48649559977713
 20
41.09641512415509
 10
38.08566457342522
 20
45.20451871562727
 42
0.3852272621621347
 10
37.59403226551802
 20
45.64930541746526
 10
35.21328925390645
 20
45.64930541746526
 42
0.3824999005162934
 10
34.72067072271347
 20
45.20451871562727
 10
34.32026406873047
 20
41.09113344944626
 42
-0.3813298878870826
 10
33.82517997932348
 20
40.64930541746526
 10
32.5
 20
40.64930541746526
 42
-0.4142135623730951
 10
29.5
 20
43.64930541746526
 10
29.5
 20
56.64859464275036
 42
-0.3394542588633766
 10
31.72354286469243
 20
59.54637212161753
 10
54.5
 20
65.64930541746526
  0
MTEXT
  5
A987
330
1F
100
AcDbEntity
  8
Bemaßung
100
AcDbMText
 10
38.00558922507395
 20
54.75932587685258
 30
0.0
 40
2.5
 41
15.20500240567617
 71
     1
 72
     5
  1
25/25
  7
RomanS
 73
     1
 44
1.0
  0
HATCH
  5
AA00
330
1F
100
AcDbEntity
  8
0
 62
    54
100
AcDbHatch
 10
0.0
 20
0.0
 30
0.0
210
0.0
220
0.0
230
1.0
  2
STEEL
 70
     0
 71
     0
 91
        2
 92
        7
 72
     1
 73
     1
 93
       17
 10
54.5
 20
54.64930541746525
 42
0.0
 10
54.5
 20
65.64930541746526
 42
0.0
 10
31.72354286469243
 20
59.54637212161753
 42
0.3394542588633766
 10
29.5
 20
56.64859464275036
 42
0.0
 10
29.5
 20
43.64930541746526
 42
0.4142135623730951
 10
32.5
 20
40.64930541746526
 42
0.0
 10
33.82517997932348
 20
40.64930541746526
 42
0.3813298878870826
 10
34.32026406873047
 20
41.09113344944626
 42
0.0
 10
34.71983401693376
 20
45.19592322104154
 42
-0.3896476242707699
 10
35.21702596461171
 20
45.64930541746526
 42
0.0
 10
37.59403226551802
 20
45.64930541746526
 42
-0.3867820724007465
 10
38.08592428636254
 20
45.20185692654307
 42
0.0
 10
38.48649559977713
 20
41.09641512415509
 42
0.3835029198984378
 10
38.98369034720861
 20
40.64930541746526
 42
0.0
 10
51.49999999999983
 20
40.64930541746526
 42
0.4142135623730959
 10
54.5
 20
43.64930541746526
 42
0.0
 10
54.5
 20
50.64930541746526
 42
0.0
 97
        0
 92
       24
 93
        4
 72
     1
 10
37.38058922507395
 20
55.38432587685258
 11
46.63058922507395
 21
55.38432587685258
 72
     1
 10
46.63058922507395
 20
55.38432587685258
 11
46.63058922507395
 21
50.32480206732884
 72
     1
 10
46.63058922507395
 20
50.32480206732884
 11
37.38058922507395
 21
50.32480206732884
 72
     1
 10
37.38058922507395
 20
50.32480206732884
 11
37.38058922507395
 21
55.38432587685271
 97
        0
 75
     0
 76
     1
 52
0.0
 41
1.5
 77
     0
 78
     2
 53
45.0
 43
-155.8802193975035
 44
-142.8949258568804
 45
-3.367596045400931
 46
3.367596045400931
 79
     0
 53
45.0
 43
-155.8802193975035
 44
-140.5136758568804
 45
-3.367596045400931
 46
3.367596045400931
 79
     0
 47
0.1023391493140641
 98
        3
 10
45.44862086285996
 20
50.92850570188828
 10
53.5778506859487
 20
52.98318273134714
 10
37.86366891609566
 20
57.9089585636882
1001
ACAD
1010
0.0
1020
0.0
1030
0.0
  0
MTEXT
  5
B679
102
{ACAD_REACTORS
330
B864
102
}
330
1F
100
AcDbEntity
  8
Bemaßung
  6
VERDECKT
 48
0.1
100
AcDbMText
 10
173.5881125573838
 20
137.8306886811352
 30
0.0
 40
2.5
 41
15.20500240567617
 71
     1
 72
     5
  1
25/15
  7
RomanS
 73
     1
 44
1.0
  0
LWPOLYLINE
  5
B77B
102
{ACAD_REACTORS
330
B864
102
}
330
1F
100
AcDbEntity
  8
Zusatzprofile
100
AcDbPolyline
 90
        8
 70
     1
 43
0.0
 10
173.9999999999997
 20
125.0638381252507
 10
170.9999999999998
 20
125.0638381252507
 10
170.4999999999998
 20
125.5638381252507
 10
170.4999999999998
 20
141.4406383109099
 42
-0.3394542588633746
 10
174.9470857293846
 20
147.2361932686443
 10
185.4999999999997
 20
150.0638381252506
 10
185.4999999999997
 20
125.0638381252507
 10
181.9999999999998
 20
125.0638381252507
 42
0.9999999999999998
  0
HATCH
  5
B864
330
1F
100
AcDbEntity
  8
Zusatzprofile
100
AcDbHatch
 10
0.0
 20
0.0
 30
0.0
210
0.0
220
0.0
230
1.0
  2
STEEL
 70
     0
 71
     1
 91
        2
 92
        7
 72
     1
 73
     1
 93
        8
 10
185.4999999999998
 20
150.0638381252506
 42
0.0
 10
174.9470857293846
 20
147.2361932686443
 42
0.3394542588633746
 10
170.4999999999998
 20
141.4406383109099
 42
0.0
 10
170.4999999999998
 20
125.5638381252507
 42
0.0
 10
170.9999999999998
 20
125.0638381252507
 42
0.0
 10
173.9999999999997
 20
125.0638381252507
 42
-1.0
 10
181.9999999999998
 20
125.0638381252507
 42
0.0
 10
185.4999999999997
 20
125.0638381252507
 42
0.0
 97
        1
330
B77B
 92
       24
 93
        4
 72
     1
 10
172.9631125573838
 20
138.4556886811352
 11
182.2131125573838
 21
138.4556886811352
 72
     1
 10
182.2131125573838
 20
138.4556886811352
 11
182.2131125573838
 21
133.3961648716114
 72
     1
 10
182.2131125573838
 20
133.3961648716114
 11
172.9631125573838
 21
133.3961648716114
 72
     1
 10
172.9631125573838
 20
133.3961648716114
 11
172.9631125573838
 21
138.4556886811352
 97
        1
330
B679
 75
     0
 76
     1
 52
0.0
 41
1.5
 77
     0
 78
     2
 53
45.0
 43
-87.74241095599359
 44
-588.7936078397967
 45
-3.367596045400931
 46
3.367596045400931
 79
     0
 53
45.0
 43
-87.74241095599359
 44
-586.4123578397967
 45
-3.367596045400931
 46
3.367596045400931
 79
     0
 47
0.2386950069812295
 98
        1
 10
180.3408921741596
 20
141.6250058739547
1001
ACAD
1010
0.0
1020
0.0
1030
0.0
  0
LWPOLYLINE
  5
BEC4
102
{ACAD_REACTORS
330
F4C3
102
}
330
1F
100
AcDbEntity
  8
Zusatzprofile
100
AcDbPolyline
 90
       10
 70
     1
 43
0.0
 10
185.4999999999997
 20
33.3425917120511
 10
185.4999999999997
 20
23.8425917120511
 10
184.9999999999999
 20
23.3425917120511
 10
161.0000000000004
 20
23.3425917120511
 10
160.5000000000005
 20
23.8425917120511
 10
160.4999999999997
 20
73.83855126907234
 10
160.8715724127385
 20
74.67311657225184
 10
170.4999999999998
 20
83.34259171205097
 10
185.4999999999997
 20
83.34259171205097
 10
185.4999999999997
 20
37.3425917120511
  0
MTEXT
  5
BEC5
102
{ACAD_REACTORS
330
F4C3
102
}
330
1F
100
AcDbEntity
  8
Bemaßung
100
AcDbMText
 10
168.1734511815227
 20
54.62832186207561
 30
0.0
 40
2.5
 41
15.20500240567617
 71
     1
 72
     5
  1
60/25
  7
RomanS
 73
     1
 44
1.0
  0
LWPOLYLINE
  5
EC4B
330
1F
100
AcDbEntity
  8
0
100
AcDbPolyline
 90
        4
 70
     1
 43
0.0
 10
0.0
 20
0.0
 10
209.9999999999999
 20
0.0
 10
209.9999999999999
 20
296.9999999999999
 10
0.0
 20
296.9999999999999
  0
MTEXT
  5
EC57
102
{ACAD_XDICTIONARY
360
F95D
102
}
330
1F
100
AcDbEntity
  8
Text
100
AcDbMText
 10
104.9999999999999
 20
251.7590634227769
 30
0.0
 40
4.0
 41
63.99999999999976
 71
     2
 72
     5
  1
{\fArial|b1|i0|c0|p34;K\U+00E4mpferprofil 1B\P(gro\U+00DFe Ausf\U+00FChrung)}
 73
     1
 44
1.0
1001
ACAD
1000
ACAD_MTEXT_DEFINED_HEIGHT_BEGIN
1070
    46
1040
13.57320787528677
1000
ACAD_MTEXT_DEFINED_HEIGHT_END
  0
MTEXT
  5
EC80
102
{ACAD_XDICTIONARY
360
F95F
102
}
330
1F
100
AcDbEntity
  8
Text
100
AcDbMText
 10
39.5
 20
251.759063422777
 30
0.0
 40
4.0
 41
67.00000000000001
 71
     2
 72
     5
  1
{\fArial|b1|i0|c0|p34;K\U+00E4mpferprofil 1A\P(kleine Ausf\U+00FChrung)}
 73
     1
 44
1.0
1001
ACAD
1000
ACAD_MTEXT_DEFINED_HEIGHT_BEGIN
1070
    46
1040
11.83754586595906
1000
ACAD_MTEXT_DEFINED_HEIGHT_END
  0
MTEXT
  5
EC94
330
1F
100
AcDbEntity
  8
0
100
AcDbMText
 10
8.989289813916457
 20
288.6378241102484
 30
0.0
 40
5.0
 41
124.0206195056769
 71
     1
 72
     5
  1
{\fArial|b1|i0|c0|p34;Holzfenster IDEAL IV68\PStilprofile}
 73
     1
 44
1.0
1001
ACAD
1000
ACAD_MTEXT_DEFINED_HEIGHT_BEGIN
1070
    46
1040
11.02238646360934
1000
ACAD_MTEXT_DEFINED_HEIGHT_END
  0
MTEXT
  5
EC95
102
{ACAD_XDICTIONARY
360
F961
102
}
330
1F
100
AcDbEntity
  8
0
100
AcDbMText
 10
6.903493688490128
 20
10.76514264524075
 30
0.0
 40
3.0
 41
98.32817594333187
 71
     1
 72
     5
  1
{\fArial|b0|i0|c0|p34;Zeichnung ohne Gew\U+00E4hr; \U+00C4nderungen vorbehalten}
 73
     1
 44
1.0
1001
ACAD
1000
ACAD_MTEXT_DEFINED_HEIGHT_BEGIN
1070
    46
1040
3.967088642823908
1000
ACAD_MTEXT_DEFINED_HEIGHT_END
  0
MTEXT
  5
EC96
330
1F
100
AcDbEntity
  8
0
100
AcDbMText
 10
159.4317421279894
 20
13.61451109251948
 30
0.0
 40
5.0
 41
44.56825787201046
 71
     1
 72
     5
  1
{\fArial|b0|i0|c0|p34;03-IV68-xx/71}
 73
     1
 44
1.0
1001
ACAD
1000
ACAD_MTEXT_DEFINED_HEIGHT_BEGIN
1070
    46
1040
9.819575724238347
1000
ACAD_MTEXT_DEFINED_HEIGHT_END
  0
LINE
  5
ECB9
330
1F
100
AcDbEntity
  8
Oberfläche
100
AcDbLine
 10
137.0728765844426
 20
277.5828845602134
 30
0.0
 11
153.3002003244003
 21
277.5828845602134
 31
0.0
  0
MTEXT
  5
ECBA
102
{ACAD_XDICTIONARY
360
F963
102
}
330
1F
100
AcDbEntity
  8
Text
100
AcDbMText
 10
172.150393104697
 20
277.5828845602134
 30
0.0
 40
4.0
 41
34.53058856881308
 71
     5
 72
     5
  1
{\fArial|b1|i0|c0|p34;Oberfl\U+00E4che\P beschichtet}
 73
     1
 44
1.0
1001
ACAD
1000
ACAD_MTEXT_DEFINED_HEIGHT_BEGIN
1070
    46
1040
14.08548144858855
1000
ACAD_MTEXT_DEFINED_HEIGHT_END
  0
LWPOLYLINE
  5
ECBB
330
1F
100
AcDbEntity
  8
0
100
AcDbPolyline
 90
        4
 70
     1
 43
0.0
 10
133.0071910201625
 20
270.5401438359193
 10
193.3032977506771
 20
270.5401438359193
 10
193.3032977506771
 20
284.6256252845074
 10
133.0071910201625
 20
284.6256252845074
  0
MTEXT
  5
F46C
102
{ACAD_XDICTIONARY
360
F965
102
}
330
1F
100
AcDbEntity
  8
Text
100
AcDbMText
 10
36.99999999999989
 20
167.3445307149915
 30
0.0
 40
4.0
 41
63.99999999999976
 71
     2
 72
     5
  1
{\fArial|b1|i0|c0|p34;Sohlbankprofil 2B\P(gro\U+00DFe Ausf\U+00FChrung)}
 73
     1
 44
1.0
1001
ACAD
1000
ACAD_MTEXT_DEFINED_HEIGHT_BEGIN
1070
    46
1040
13.57320787528677
1000
ACAD_MTEXT_DEFINED_HEIGHT_END
  0
MTEXT
  5
F46D
102
{ACAD_XDICTIONARY
360
F967
102
}
330
1F
100
AcDbEntity
  8
Text
100
AcDbMText
 10
170.4999999999998
 20
251.759063422777
 30
0.0
 40
4.0
 41
67.00000000000001
 71
     2
 72
     5
  1
{\fArial|b1|i0|c0|p34;Sohlbankprofil 2A\P(kleine Ausf\U+00FChrung)}
 73
     1
 44
1.0
1001
ACAD
1000
ACAD_MTEXT_DEFINED_HEIGHT_BEGIN
1070
    46
1040
11.83754586595894
1000
ACAD_MTEXT_DEFINED_HEIGHT_END
  0
MTEXT
  5
F47F
330
1F
100
AcDbEntity
  8
Text
100
AcDbMText
 10
170.4999999999998
 20
93.83668036414848
 30
0.0
 40
4.0
 41
66.99999999999999
 71
     5
 72
     5
  1
{\fArial|b1|i0|c0|p34;Basisprofil 7}
 73
     1
 44
1.0
1001
ACAD
1000
ACAD_MTEXT_DEFINED_HEIGHT_BEGIN
1070
    46
1040
13.57320787528677
1000
ACAD_MTEXT_DEFINED_HEIGHT_END
  0
MTEXT
  5
F482
102
{ACAD_XDICTIONARY
360
F969
102
}
330
1F
100
AcDbEntity
  8
Text
100
AcDbMText
 10
36.99999999999977
 20
82.92999800720588
 30
0.0
 40
4.0
 41
63.99999999999976
 71
     2
 72
     5
  1
{\fArial|b1|i0|c0|p34;Wetterschenkel 4B\P(gro\U+00DFe Ausf\U+00FChrung)}
 73
     1
 44
1.0
1001
ACAD
1000
ACAD_MTEXT_DEFINED_HEIGHT_BEGIN
1070
    46
1040
13.57320787528677
1000
ACAD_MTEXT_DEFINED_HEIGHT_END
  0
MTEXT
  5
F483
102
{ACAD_XDICTIONARY
360
F96B
102
}
330
1F
100
AcDbEntity
  8
Text
100
AcDbMText
 10
170.4999999999998
 20
167.3445307149914
 30
0.0
 40
4.0
 41
67.00000000000001
 71
     2
 72
     5
  1
{\fArial|b1|i0|c0|p34;Wetterschenkel 4A\P(kleine Ausf\U+00FChrung)}
 73
     1
 44
1.0
1001
ACAD
1000
ACAD_MTEXT_DEFINED_HEIGHT_BEGIN
1070
    46
1040
11.83754586595894
1000
ACAD_MTEXT_DEFINED_HEIGHT_END
  0
MTEXT
  5
F4A8
330
1F
100
AcDbEntity
  8
Text
100
AcDbMText
 10
109.0
 20
167.3445307149911
 30
0.0
 40
4.0
 41
63.99999999999976
 71
     2
 72
     5
  1
{\fArial|b1|i0|c0|p34;Regenschienen-\Pabdeckung 3}
 73
     1
 44
1.0
1001
ACAD
1000
ACAD_MTEXT_DEFINED_HEIGHT_BEGIN
1070
    46
1040
13.57320787528677
1000
ACAD_MTEXT_DEFINED_HEIGHT_END
  0
HATCH
  5
F4C3
330
1F
100
AcDbEntity
  8
Schraffur
 62
    54
100
AcDbHatch
 10
0.0
 20
0.0
 30
0.0
210
0.0
220
0.0
230
1.0
  2
STEEL
 70
     0
 71
     1
 91
        2
 92
        7
 72
     0
 73
     1
 93
       10
 10
185.4999999999997
 20
83.34259171205097
 10
170.4999999999998
 20
83.34259171205097
 10
160.8715724127384
 20
74.67311657225181
 10
160.4999999999997
 20
73.83855126907234
 10
160.5000000000005
 20
23.84259171205111
 10
161.0000000000004
 20
23.3425917120511
 10
184.9999999999999
 20
23.3425917120511
 10
185.4999999999997
 20
23.84259171205108
 10
185.4999999999997
 20
33.3425917120511
 10
185.4999999999997
 20
37.3425917120511
 97
        1
330
BEC4
 92
       24
 93
        4
 72
     1
 10
167.5484511815227
 20
55.25332186207561
 11
176.7151178481894
 21
55.25332186207561
 72
     1
 10
176.7151178481894
 20
55.25332186207561
 11
176.7151178481894
 21
50.19379805255178
 72
     1
 10
176.7151178481894
 20
50.19379805255178
 11
167.5484511815227
 21
50.19379805255178
 72
     1
 10
167.5484511815227
 20
50.19379805255178
 11
167.5484511815227
 21
55.25332186207561
 97
        1
330
BEC5
 75
     0
 76
     1
 52
90.0
 41
2.0
 77
     0
 78
     2
 53
135.0
 43
-87.74241095599359
 44
-739.929386960782
 45
-4.490128060534575
 46
-4.490128060534575
 79
     0
 53
135.0
 43
-90.91741095599358
 44
-739.929386960782
 45
-4.490128060534575
 46
-4.490128060534575
 79
     0
 47
0.2910153894339326
 98
        1
 10
179.3804995688372
 20
74.12767412243693
1001
ACAD
1010
0.0
1020
0.0
1030
0.0
  0
MTEXT
  5
F4CA
102
{ACAD_XDICTIONARY
360
F96D
102
}
330
1F
100
AcDbEntity
  8
Text
100
AcDbMText
 10
107.5
 20
96.55402705318019
 30
0.0
 40
4.0
 41
66.99999999999999
 71
     5
 72
     5
  1
{\fArial|b1|i0|c0|p34;Kapitell  6B\P(geschnitzt oder gefr\U+00E4st)}
 73
     1
 44
1.0
1001
ACAD
1000
ACAD_MTEXT_DEFINED_HEIGHT_BEGIN
1070
    46
1040
13.57320787528677
1000
ACAD_MTEXT_DEFINED_HEIGHT_END
  0
LWPOLYLINE
  5
F50E
330
1F
100
AcDbEntity
  8
0
100
AcDbPolyline
 90
        4
 70
     1
 43
0.0
 10
6.0
 20
6.0
 10
203.9999999999999
 20
6.0
 10
203.9999999999999
 20
290.9999999999999
 10
6.000000000000027
 20
290.9999999999999
  0
HATCH
  5
F536
330
1F
100
AcDbEntity
  8
Schraffur
 62
    54
100
AcDbHatch
 10
0.0
 20
0.0
 30
0.0
210
0.0
220
0.0
230
1.0
  2
STEEL
 70
     0
 71
     1
 91
        2
 92
        5
 93
       19
 72
     4
 94
        3
 73
     0
 74
     0
 95
       17
 96
       13
 40
22.0
 40
22.0
 40
22.0
 40
22.0
 40
23.0
 40
23.0
 40
23.0
 40
24.0
 40
24.0
 40
24.0
 40
25.0
 40
25.0
 40
25.0
 40
25.5
 40
25.5
 40
25.5
 40
25.5
 10
97.69056702564194
 20
78.02949796985102
 10
97.880908119776
 20
76.26169273028448
 10
98.01207581677092
 20
69.10171167630801
 10
98.01207581677092
 20
69.10171167630801
 10
98.01207581677092
 20
69.10171167630801
 10
99.86173758904785
 20
69.10171167630778
 10
99.86173758904785
 20
69.10171167630778
 10
99.86173758904785
 20
69.10171167630778
 10
100.053064906469
 20
59.31837668244452
 10
100.053064906469
 20
59.31837668244452
 10
100.053064906469
 20
59.31837668244452
 10
100.5591207299292
 20
58.66574342315129
 10
101.0651765533894
 20
58.01311016385807
 72
     4
 94
        3
 73
     0
 74
     0
 95
       11
 96
        7
 40
0.5
 40
0.5
 40
0.5
 40
0.5
 40
1.0
 40
1.0
 40
1.0
 40
2.0
 40
2.0
 40
2.0
 40
2.0
 10
101.0651765533894
 20
58.01311016385807
 10
101.5712323768496
 20
57.36047690456484
 10
102.0772882003098
 20
56.70784364527161
 10
102.0772882003098
 20
56.70784364527161
 10
102.0772882003098
 20
56.70784364527161
 10
100.7488454345098
 20
56.63683556870307
 10
100.4889755987349
 20
56.48397095942414
 72
     4
 94
        3
 73
     0
 74
     0
 95
        8
 96
        4
 40
2.0
 40
2.0
 40
2.0
 40
2.0
 40
3.0
 40
3.0
 40
3.0
 40
3.0
 10
100.4889755987349
 20
56.48397095942414
 10
100.2291057629609
 20
56.33159946178761
 10
99.85434091440584
 20
55.91097523044857
 10
99.84349245826296
 20
55.51944458603703
 72
     4
 94
        3
 73
     0
 74
     0
 95
       11
 96
        7
 40
3.0
 40
3.0
 40
3.0
 40
3.0
 40
4.0
 40
4.0
 40
4.0
 40
5.0
 40
5.0
 40
5.0
 40
5.0
 10
99.84349245826296
 20
55.51944458603703
 10
99.83313711376377
 20
55.12791394162537
 10
100.1995190643908
 20
53.00063031443165
 10
100.1995190643908
 20
53.00063031443165
 10
100.1995190643908
 20
53.00063031443165
 10
103.3041499676849
 20
50.97788635551864
 10
104.9580464177568
 20
49.25988539187869
 72
     4
 94
        3
 73
     0
 74
     0
 95
       11
 96
        7
 40
5.0
 40
5.0
 40
5.0
 40
5.0
 40
6.0
 40
6.0
 40
6.0
 40
6.5
 40
6.5
 40
6.5
 40
6.5
 10
104.9580464177568
 20
49.25988539187869
 10
106.612435979471
 20
47.54139131659576
 10
107.3816901422949
 20
45.35148251076156
 10
107.3816901422949
 20
45.35148251076156
 10
107.3816901422949
 20
45.35148251076156
 10
107.4017844417404
 20
45.07213476509511
 10
107.4218787411859
 20
44.79278701942864
 72
     4
 94
        3
 73
     0
 74
     0
 95
       11
 96
        7
 40
6.5
 40
6.5
 40
6.5
 40
6.5
 40
7.0
 40
7.0
 40
7.0
 40
7.5
 40
7.5
 40
7.5
 40
7.5
 10
107.4218787411859
 20
44.79278701942864
 10
107.4419730406314
 20
44.5134392737622
 10
107.4620673400769
 20
44.23409152809575
 10
107.4620673400769
 20
44.23409152809575
 10
107.4620673400769
 20
44.23409152809575
 10
106.2924065232704
 20
44.17590435424111
 10
105.1227457064639
 20
44.11771718038646
 72
     4
 94
        3
 73
     0
 74
     0
 95
       11
 96
        7
 40
7.5
 40
7.5
 40
7.5
 40
7.5
 40
8.0
 40
8.0
 40
8.0
 40
8.5
 40
8.5
 40
8.5
 40
8.5
 10
105.1227457064639
 20
44.11771718038646
 10
103.9530848896574
 20
44.05953000653183
 10
102.7834240728509
 20
44.0013428326772
 10
102.7834240728509
 20
44.0013428326772
 10
102.7834240728509
 20
44.0013428326772
 10
102.7619737163874
 20
43.59144377956986
 10
102.7405233599239
 20
43.18154472646255
 72
     4
 94
        3
 73
     0
 74
     0
 95
       11
 96
        7
 40
8.5
 40
8.5
 40
8.5
 40
8.5
 40
9.0
 40
9.0
 40
9.0
 40
9.5
 40
9.5
 40
9.5
 40
9.5
 10
102.7405233599239
 20
43.18154472646255
 10
102.7190730034604
 20
42.7716456733552
 10
102.6976226469969
 20
42.36174662024788
 10
102.6976226469969
 20
42.36174662024788
 10
102.6976226469969
 20
42.36174662024788
 10
103.6244259797069
 20
41.17790884370974
 10
104.5512293124169
 20
39.99407106717161
 72
     4
 94
        3
 73
     0
 74
     0
 95
       11
 96
        7
 40
9.5
 40
9.5
 40
9.5
 40
9.5
 40
10.0
 40
10.0
 40
10.0
 40
10.5
 40
10.5
 40
10.5
 40
10.5
 10
104.5512293124169
 20
39.99407106717161
 10
105.4780326451269
 20
38.81023329063344
 10
106.4048359778369
 20
37.62639551409529
 10
106.4048359778369
 20
37.62639551409529
 10
106.4048359778369
 20
37.62639551409529
 10
106.7619720851609
 20
37.62664206991666
 10
107.1191081924849
 20
37.62688862573804
 72
     4
 94
        3
 73
     0
 74
     0
 95
       11
 96
        7
 40
10.5
 40
10.5
 40
10.5
 40
10.5
 40
11.0
 40
11.0
 40
11.0
 40
11.5
 40
11.5
 40
11.5
 40
11.5
 10
107.1191081924849
 20
37.62688862573804
 10
107.4762442998089
 20
37.62713518155942
 10
107.8333804071328
 20
37.6273817373808
 10
107.8333804071328
 20
37.6273817373808
 10
107.8333804071328
 20
37.6273817373808
 10
107.9035255383261
 20
32.73361851596703
 10
107.9736706695194
 20
27.83985529455327
 72
     4
 94
        3
 73
     0
 74
     0
 95
       11
 96
        7
 40
11.5
 40
11.5
 40
11.5
 40
11.5
 40
12.0
 40
12.0
 40
12.0
 40
13.0
 40
13.0
 40
13.0
 40
13.0
 10
107.9736706695194
 20
27.83985529455327
 10
108.0438158007126
 20
22.94609207313951
 10
108.1139609319059
 20
18.05232885172575
 10
108.1139609319059
 20
18.05232885172575
 10
108.1139609319059
 20
18.05232885172575
 10
104.233665414431
 20
18.08043621536762
 10
103.827834532377
 20
18.05084951679725
 72
     4
 94
        3
 73
     0
 74
     0
 95
        8
 96
        4
 40
13.0
 40
13.0
 40
13.0
 40
13.0
 40
14.0
 40
14.0
 40
14.0
 40
14.0
 10
103.827834532377
 20
18.05084951679725
 10
103.42151053868
 20
18.02224904151261
 10
102.7109366613538
 20
17.97096543065799
 10
102.3849898654387
 20
16.82497397270753
 72
     4
 94
        3
 73
     0
 74
     0
 95
       11
 96
        7
 40
14.0
 40
14.0
 40
14.0
 40
14.0
 40
15.0
 40
15.0
 40
15.0
 40
15.5
 40
15.5
 40
15.5
 40
15.5
 10
102.3849898654387
 20
16.82497397270753
 10
102.0585499578819
 20
15.67898251475708
 10
102.8928948575599
 20
14.00388226404345
 10
102.8928948575599
 20
14.00388226404345
 10
102.8928948575599
 20
14.00388226404345
 10
104.1244411855424
 20
12.86824615059248
 10
105.3559875135248
 20
11.73261003714151
 72
     4
 94
        3
 73
     0
 74
     0
 95
       11
 96
        7
 40
15.5
 40
15.5
 40
15.5
 40
15.5
 40
16.0
 40
16.0
 40
16.0
 40
16.5
 40
16.5
 40
16.5
 40
16.5
 10
105.3559875135248
 20
11.73261003714151
 10
106.5875338415073
 20
10.59697392369054
 10
107.8190801694898
 20
9.461337810239566
 10
107.8190801694898
 20
9.461337810239566
 10
107.8190801694898
 20
9.461337810239566
 10
111.4893101271173
 20
9.461337810239566
 10
115.1595400847449
 20
9.461337810239566
 72
     4
 94
        3
 73
     0
 74
     0
 95
       11
 96
        7
 40
16.5
 40
16.5
 40
16.5
 40
16.5
 40
17.0
 40
17.0
 40
17.0
 40
17.5
 40
17.5
 40
17.5
 40
17.5
 10
115.1595400847449
 20
9.461337810239566
 10
118.8297700423724
 20
9.461337810239566
 10
122.5
 20
9.461337810239566
 10
122.5
 20
9.461337810239566
 10
122.5
 20
9.461337810239566
 10
122.5
 20
29.22907407033264
 10
122.5
 20
48.99681033042572
 72
     4
 94
        3
 73
     0
 74
     0
 95
       11
 96
        7
 40
17.5
 40
17.5
 40
17.5
 40
17.5
 40
18.0
 40
18.0
 40
18.0
 40
19.0
 40
19.0
 40
19.0
 40
19.0
 10
122.5
 20
48.99681033042572
 10
122.5
 20
68.76454659051879
 10
122.5
 20
88.53228285061186
 10
122.5
 20
88.53228285061186
 10
122.5
 20
88.53228285061186
 10
95.62837413530292
 20
88.2916443689081
 10
94.91780025797586
 20
88.24036075805315
 72
     4
 94
        3
 73
     0
 74
     0
 95
        8
 96
        4
 40
19.0
 40
19.0
 40
19.0
 40
19.0
 40
20.0
 40
20.0
 40
20.0
 40
20.0
 10
94.91780025797586
 20
88.24036075805315
 10
94.20722638064992
 20
88.18957025884117
 10
93.50355606632296
 20
88.03769187284752
 10
93.3156805304018
 20
86.3911920974184
 72
     4
 94
        3
 73
     0
 74
     0
 95
        8
 96
        4
 40
20.0
 40
20.0
 40
20.0
 40
20.0
 40
21.0
 40
21.0
 40
21.0
 40
21.0
 10
93.3156805304018
 20
86.3911920974184
 10
93.12731188283876
 20
84.74419921034678
 10
94.84629906976488
 20
83.10706855613194
 10
95.65204349415898
 20
82.27173743316781
 72
     4
 94
        3
 73
     0
 74
     0
 95
        8
 96
        4
 40
21.0
 40
21.0
 40
21.0
 40
21.0
 40
22.0
 40
22.0
 40
22.0
 40
22.0
 10
95.65204349415898
 20
82.27173743316781
 10
96.88038459646305
 20
80.99901628300836
 10
97.50614327122091
 20
79.7474989334912
 10
97.69056702564194
 20
78.02949796985102
 97
        1
330
9C85
 92
       24
 93
        4
 72
     1
 10
106.9776382201837
 20
55.37589186375408
 11
116.2276382201837
 21
55.37589186375408
 72
     1
 10
116.2276382201837
 20
55.37589186375408
 11
116.2276382201837
 21
50.31636805423026
 72
     1
 10
116.2276382201837
 20
50.31636805423026
 11
106.9776382201837
 21
50.31636805423026
 72
     1
 10
106.9776382201837
 20
50.31636805423026
 11
106.9776382201837
 21
55.37589186375408
 97
        1
330
9C8B
 75
     0
 76
     1
 52
90.0
 41
2.0
 77
     0
 78
     2
 53
135.0
 43
-87.74241095599359
 44
-588.7936078397967
 45
-4.490128060534575
 46
-4.490128060534575
 79
     0
 53
135.0
 43
-90.91741095599358
 44
-588.7936078397967
 45
-4.490128060534575
 46
-4.490128060534575
 79
     0
 47
0.4424053040806585
 98
        1
 10
109.902318731871
 20
69.19450576908253
1001
ACAD
1010
0.0
1020
0.0
1030
0.0
  0
LWPOLYLINE
  5
F591
330
1F
100
AcDbEntity
  8
Oberfläche
100
AcDbPolyline
 90
       11
 70
   128
 43
0.0
 10
185.4999999999997
 20
235.5051999055124
 10
170.4670823553763
 20
231.999661978722
 42
0.2987898666588862
 10
168.1857881044093
 20
229.6012739883345
 10
165.6001426652102
 20
213.728517622892
 42
-0.1890498061721615
 10
162.7138811991814
 20
207.7562593712908
 10
160.8676696873566
 20
206.233458512998
 42
0.1868336112927893
 10
159.4963256583153
 20
203.7915313837552
 10
159.4999859406945
 20
192.5639348800478
 10
160.5858737847387
 20
191.478370833036
 10
185.4142135623729
 20
191.478370833036
 10
185.4999999999997
 20
191.5641572706629
  0
LWPOLYLINE
  5
F592
330
1F
100
AcDbEntity
  8
Oberfläche
100
AcDbPolyline
 90
        8
 70
     0
 43
0.0
 10
185.4999999999997
 20
124.0638381252507
 10
180.8284271247459
 20
124.0638381252507
 42
1.414213562373081
 10
175.1715728752534
 20
124.0638381252507
 10
170.5857864376266
 20
124.0638381252507
 10
169.4999999999998
 20
125.1496245628776
 10
169.4999999999998
 20
141.4406383109099
 42
-0.3394542588633746
 10
174.6882666842821
 20
148.2021190949334
 10
185.4999999999997
 20
151.0991143056607
  0
LWPOLYLINE
  5
F594
330
1F
100
AcDbEntity
  8
Oberfläche
100
AcDbPolyline
 90
       11
 70
   128
 43
0.0
 10
54.49999999999999
 20
151.090667197727
 10
39.46708235537665
 20
147.5851292709365
 42
0.3018737621614479
 10
37.17988276528516
 20
145.1531274973618
 10
34.59778389608058
 20
119.2838653856802
 42
-0.1881888801073643
 10
31.71388119918239
 20
113.3417266635052
 10
29.86766968735729
 20
111.8189258052127
 42
0.1868317984651746
 10
28.49632951185608
 20
109.3770255757001
 10
28.49997636439502
 20
96.14942960774619
 10
29.58586718607643
 20
95.06383812525063
 10
54.41421356237331
 20
95.06383812525063
 10
54.5
 20
95.14962456287735
  0
LWPOLYLINE
  5
F595
330
1F
100
AcDbEntity
  8
Oberfläche
100
AcDbPolyline
 90
       13
 70
     0
 43
0.0
 10
54.5
 20
41.00355410640072
 42
-0.2152504370215394
 10
51.4999999999998
 20
39.64930541746526
 10
38.98369034720861
 20
39.64930541746526
 42
-0.3845596883428501
 10
37.49153171690601
 20
40.99613028236459
 10
37.13508843200799
 20
44.64930541746523
 10
35.67135154439259
 20
44.64930541746523
 10
35.31497410013141
 20
40.98823307053717
 42
-0.3833343768218316
 10
33.82517997932374
 20
39.64930541746527
 10
32.5
 20
39.64930541746526
 42
-0.4142135623730951
 10
28.5
 20
43.64930541746526
 10
28.5
 20
56.64859464275036
 42
-0.3394542588633758
 10
31.46472381958992
 20
60.51229794790661
 10
54.50000000000001
 20
66.68458159787532
  0
LWPOLYLINE
  5
F596
330
1F
100
AcDbEntity
  8
Oberfläche
100
AcDbPolyline
 90
        8
 70
     0
 43
0.0
 10
185.4999999999997
 20
22.42837814967785
 10
185.414213562373
 20
22.3425917120511
 10
160.5857864376274
 20
22.3425917120511
 10
159.5000000000005
 20
23.428378149678
 10
159.4999999999997
 20
74.05110783074238
 10
160.0444814974532
 20
75.27403329673339
 10
170.1161359649643
 20
84.34259171205097
 10
185.4999999999997
 20
84.34259171205097
  0
LWPOLYLINE
  5
F59A
330
1F
100
AcDbEntity
  8
Oberfläche
100
AcDbPolyline
 90
       14
 70
     1
 43
0.0
 10
96.49999999999998
 20
113.1742969811579
 10
96.49999999999998
 20
125.8777615172038
 42
-0.093184508937798
 10
97.11384767440245
 20
129.1428826487856
 10
103.9340370029074
 20
145.6239210787628
 42
-0.2424668944467702
 10
106.0311045753037
 20
147.3998875789149
 10
122.2578206133718
 20
151.1467227812755
 10
123.5
 20
150.1586844357191
 10
123.5
 20
139.6763764470902
 42
-0.4141172667146539
 10
121.0007762792664
 20
137.1763308836333
 10
108.9985662825782
 20
137.1763308295835
 42
0.4143099279581584
 10
108.499999945879
 20
136.6776004368341
 10
108.5
 20
113.1744496180255
 42
-0.414309896263093
 10
104.5005660950072
 20
109.1763308836689
 10
100.4991050117278
 20
109.1763308295835
 42
-0.4141301431888201
  0
MTEXT
  5
F7B5
330
1F
100
AcDbEntity
  8
Oberfläche
100
AcDbMText
 10
243.8943551416777
 20
160.8973126375443
 30
0.0
 40
15.0
 41
248.1130828017941
 71
     1
 72
     1
  1
{\fArial|b1|i0|c0|p34;siehe auch Zeichnung:\PIV68_30. Stil und Renovierung.dxf\PIV78_30. Stil und Renovierung.dxf}
  7
RomanS
 73
     1
 44
1.0
  0
HATCH
  5
F844
330
1F
100
AcDbEntity
  8
Schraffur
 62
    54
100
AcDbHatch
 10
0.0
 20
0.0
 30
0.0
210
0.0
220
0.0
230
1.0
  2
STEEL
 70
     0
 71
     0
 91
        2
 92
        7
 72
     1
 73
     1
 93
       15
 10
54.5000000000002
 20
234.4783708330364
 42
0.0
 10
20.98236190979489
 20
225.4973467745676
 42
0.3394542588633761
 10
19.5000000000002
 20
223.5654951219894
 42
0.0
 10
19.5000000000002
 20
217.692272868581
 42
0.289701532221255
 10
20.62709926989152
 20
216.0780727759206
 42
-0.2960254936678509
 10
28.0336209394232
 20
208.0743777010577
 42
0.0
 10
29.69294161756491
 20
194.2219831904326
 42
0.3421108181423255
 10
30.652543115309
 20
193.4783708330363
 42
0.0
 10
31.99453391114386
 20
193.4783708330363
 42
-0.2809527326589287
 10
32.4637359386597
 20
193.0819090721966
 42
0.2102264695692437
 10
36.41158775120401
 20
188.722211277966
 42
-0.0193675614763862
 10
38.63711982669548
 20
187.6216671567835
 42
-0.2748269888645729
 10
42.00000000000018
 20
181.9655955478291
 42
0.0
 10
42.00000000000018
 20
180.4783708330365
 42
0.0
 10
54.5000000000002
 20
180.4783708330365
 42
0.0
 97
        0
 92
       24
 93
        4
 72
     1
 10
36.7831603193097
 20
212.1763052077159
 11
46.03316031930959
 21
212.1763052077159
 72
     1
 10
46.03316031930959
 20
212.1763052077159
 11
46.03316031930959
 21
207.116781398192
 72
     1
 10
46.03316031930959
 20
207.116781398192
 11
36.7831603193097
 21
207.116781398192
 72
     1
 10
36.7831603193097
 20
207.116781398192
 11
36.7831603193097
 21
212.176305207716
 97
        0
 75
     0
 76
     1
 52
90.0
 41
1.5
 77
     0
 78
     2
 53
135.0
 43
-255.9290710367606
 44
-89.81316911984956
 45
-3.367596045400931
 46
-3.367596045400931
 79
     0
 53
135.0
 43
-258.3103210367606
 44
-89.81316911984956
 45
-3.367596045400931
 46
-3.367596045400931
 79
     0
 47
0.1889347105105751
 98
        4
 10
-255.9290710367606
 20
-89.81316911984956
 10
-255.9290710367606
 20
-89.81316911984956
 10
44.1901947901367
 20
223.4251471980015
 10
45.6097970849279
 20
196.868197201821
1001
ACAD
1010
0.0
1020
0.0
1030
0.0
  0
LWPOLYLINE
  5
F845
330
1F
100
AcDbEntity
  8
Zusatzprofile
100
AcDbPolyline
 90
       17
 70
     0
 43
0.0
 10
54.5000000000002
 20
180.4783708330365
 10
42.5000000000002
 20
180.4783708330365
 10
42.00000000000018
 20
180.9783708330364
 10
42.00000000000018
 20
181.9655955478291
 42
0.2748269888645587
 10
38.6371198266958
 20
187.6216671567832
 42
0.0193675614763884
 10
36.41158775120401
 20
188.722211277966
 42
-0.2102264695692435
 10
32.4637359386597
 20
193.0819090721963
 42
0.2809527326589483
 10
31.99453391114386
 20
193.4783708330363
 10
30.652543115309
 20
193.4783708330363
 42
-0.3421108181423255
 10
29.69294161756491
 20
194.2219831904326
 10
28.0336209394232
 20
208.0743777010577
 42
0.2960254936678471
 10
20.62709926989171
 20
216.0780727759203
 42
-0.2897015322212744
 10
19.5000000000002
 20
217.692272868581
 10
19.5000000000002
 20
223.5654951219894
 42
-0.339454258863376
 10
20.98236190979489
 20
225.4973467745676
 10
54.5000000000002
 20
234.4783708330364
 10
54.5000000000002
 20
180.4783708330365
  0
LWPOLYLINE
  5
F846
330
1F
100
AcDbEntity
  8
Oberfläche
100
AcDbPolyline
 90
       15
 70
     0
 43
0.0
 10
54.5000000000002
 20
179.4783708330365
 10
42.08578643762711
 20
179.4783708330365
 10
41.0000000000002
 20
180.5641572706633
 10
41.0000000000002
 20
181.9655955478291
 42
0.2748269888645574
 10
38.15947246245571
 20
186.7431155103592
 42
0.0193675614763885
 10
36.0033577155159
 20
187.8093321852258
 42
-0.2006539584472894
 10
31.61663111915693
 20
192.4783708330363
 10
30.652543115309
 20
192.4783708330363
 42
-0.3531009186674009
 10
28.7065915306564
 20
194.048350943967
 10
27.04388328211171
 20
207.9290256793084
 42
0.2972101908148857
 10
20.31854370907473
 20
215.1244391447844
 42
-0.3001948776765212
 10
18.5000000000002
 20
217.6719421339435
 10
18.5000000000002
 20
223.5654951219894
 42
-0.3394542588633759
 10
20.72354286469226
 20
226.4632726008565
 10
54.50000000000009
 20
235.5136470134465
  0
MTEXT
  5
F847
330
1F
100
AcDbEntity
  8
Bemaßung
100
AcDbMText
 10
37.4081603193095
 20
211.5513052077159
 30
0.0
 40
2.5
 41
15.20500240567617
 71
     1
 72
     5
  1
54/35
  7
RomanS
 73
     1
 44
1.0
  0
HATCH
  5
F84C
330
1F
100
AcDbEntity
  8
0
 62
    54
100
AcDbHatch
 10
0.0
 20
0.0
 30
0.0
210
0.0
220
0.0
230
1.0
  2
STEEL
 70
     0
 71
     1
 91
        2
 92
        7
 72
     1
 73
     1
 93
       13
 10
93.98236190979496
 20
226.8578806516945
 42
0.3394542588633744
 10
92.50000000000005
 20
224.9260289991164
 42
0.0
 10
92.50000000000005
 20
219.9188321494925
 42
0.2897015322212428
 10
93.62709926989138
 20
218.304632056832
 42
-0.305356460253532
 10
100.5336209394228
 20
210.300936981969
 42
0.0
 10
103.8573593112534
 20
184.9741200731745
 42
0.0
 10
104.4224184451424
 20
184.4783708330363
 42
0.0
 10
106.4224184451425
 20
184.4783708330364
 42
0.4142135623730951
 10
112.4224184451424
 20
178.4783708330364
 42
0.0
 10
112.4224184451424
 20
172.9783708330363
 42
0.0
 10
112.9224184451424
 20
172.4783708330362
 42
0.0
 10
122.5
 20
172.4783708330363
 42
0.0
 10
122.5
 20
234.4783708330365
 42
0.0
 97
        1
330
F84D
 92
       24
 93
        4
 72
     1
 10
106.9943399161976
 20
206.2808157021941
 11
116.1610065828642
 21
206.2808157021941
 72
     1
 10
116.1610065828642
 20
206.2808157021941
 11
116.1610065828642
 21
201.2212918926703
 72
     1
 10
116.1610065828642
 20
201.2212918926703
 11
106.9943399161976
 21
201.2212918926703
 72
     1
 10
106.9943399161976
 20
201.2212918926703
 11
106.9943399161976
 21
206.2808157021941
 97
        1
330
F84F
 75
     0
 76
     1
 52
90.0
 41
1.5
 77
     0
 78
     2
 53
135.0
 43
100.2561013415808
 44
-95.87742084078495
 45
-3.367596045400931
 46
-3.367596045400931
 79
     0
 53
135.0
 43
97.87485134158082
 44
-95.87742084078495
 45
-3.367596045400931
 46
-3.367596045400931
 79
     0
 47
0.2851083110311352
 98
        1
 10
104.3195650098236
 20
222.8013968297172
1001
ACAD
1010
0.0
1020
0.0
1030
0.0
  0
LWPOLYLINE
  5
F84D
102
{ACAD_REACTORS
330
F84C
102
}
330
1F
100
AcDbEntity
  8
0
 62
    54
100
AcDbPolyline
 90
       13
 70
     1
 43
0.0
 10
106.4224184451425
 20
184.4783708330364
 10
104.4224184451424
 20
184.4783708330363
 10
103.8573593112534
 20
184.9741200731745
 10
100.5336209394228
 20
210.300936981969
 42
0.3053564602535252
 10
93.62709926989159
 20
218.3046320568319
 42
-0.2897015322212748
 10
92.50000000000005
 20
219.9188321494925
 10
92.50000000000005
 20
224.9260289991164
 42
-0.3394542588633744
 10
93.98236190979496
 20
226.8578806516945
 10
122.5
 20
234.4783708330365
 10
122.5
 20
172.4783708330363
 10
112.9224184451424
 20
172.4783708330363
 10
112.4224184451424
 20
172.9783708330363
 10
112.4224184451424
 20
178.4783708330364
 42
-0.4142135623730951
  0
LWPOLYLINE
  5
F84E
330
1F
100
AcDbEntity
  8
Oberfläche
100
AcDbPolyline
 90
       13
 70
     0
 43
0.0
 10
122.5
 20
171.4783708330364
 10
112.5082048827694
 20
171.4783708330364
 10
111.4224184451424
 20
172.5641572706632
 10
111.4224184451424
 20
177.5501676027609
 42
-0.3325276866806279
 10
105.494215214867
 20
183.4783708330364
 10
104.0459276627738
 20
183.4783708330363
 10
102.9148491594132
 20
184.4707117668398
 10
99.54136873410677
 20
210.1765620832364
 42
0.3073676381947161
 10
93.30929742245212
 20
217.3545773459667
 42
-0.2992442106803249
 10
91.50000000000003
 20
219.8985014148548
 10
91.50000000000003
 20
224.9260289991164
 42
-0.3394542588633731
 10
93.72354286469244
 20
227.8238064779835
 10
122.5
 20
235.5134585789013
  0
MTEXT
  5
F84F
102
{ACAD_REACTORS
330
F84C
102
}
330
1F
100
AcDbEntity
  8
Bemaßung
100
AcDbMText
 10
107.6193399161976
 20
205.6558157021941
 30
0.0
 40
2.5
 41
15.20500240567617
 71
     1
 72
     5
  1
62/30
  7
RomanS
 73
     1
 44
1.0
  0
VIEWPORT
  5
177E
330
D2
100
AcDbEntity
 67
     1
  8
0
100
AcDbViewport
 10
98.98666697928021
 20
142.5159194786203
 30
0.0
 40
534.0409760220062
 41
300.5836861703397
 68
     2
 69
     1
 12
98.98666697928021
 22
142.5159194786203
 13
0.0
 23
0.0
 14
10.0
 24
10.0
 15
10.0
 25
10.0
 16
0.0
 26
0.0
 36
1.0
 17
0.0
 27
0.0
 37
0.0
 42
50.0
 43
0.0
 44
0.0
 45
300.5836861703397
 50
0.0
 51
0.0
 72
  1000
 90
   557088
  1

281
     0
 71
     1
 74
     0
110
0.0
120
0.0
130
0.0
111
1.0
121
0.0
131
0.0
112
0.0
122
1.0
132
0.0
 79
     0
146
0.0
170
     0
  0
VIEWPORT
  5
1780
330
D2
100
AcDbEntity
 67
     1
  8
0
100
AcDbViewport
 10
98.98666312582941
 20
142.5159147323491
 30
0.0
 40
209.9733268086163
 41
297.0318298920366
 68
     1
 69
     2
 12
104.8447932404947
 22
148.5324405335864
 13
0.0
 23
0.0
 14
10.0
 24
10.0
 15
10.0
 25
10.0
 16
0.0
 26
0.0
 36
1.0
 17
0.0
 27
0.0
 37
0.0
 42
50.0
 43
0.0
 44
0.0
 45
297.0318297082681
 50
0.0
 51
0.0
 72
  1000
 90
   819296
  1

281
     0
 71
     1
 74
     0
110
0.0
120
0.0
130
0.0
111
1.0
121
0.0
131
0.0
112
0.0
122
1.0
132
0.0
 79
     0
146
0.0
170
     0
  0
ENDSEC
  0
SECTION
  2
OBJECTS
  0
DICTIONARY
  5
C
330
0
100
AcDbDictionary
281
     1
  3
ACAD_COLOR
350
6B
  3
ACAD_GROUP
350
D
  3
ACAD_LAYOUT
350
1A
  3
ACAD_MATERIAL
350
6A
  3
ACAD_MLINESTYLE
350
17
  3
ACAD_PLOTSETTINGS
350
19
  3
ACAD_PLOTSTYLENAME
350
E
  3
ACAD_TABLESTYLE
350
7E
  3
ACAD_VISUALSTYLE
350
EF
  3
AcDbVariableDictionary
350
5E
  0
DICTIONARY
  5
120
330
2
100
AcDbDictionary
280
     1
281
     1
  3
ACAD_LAYERFILTERS
360
E565
  3
ACAD_LAYERSTATES
360
121
  3
ACLYDICTIONARY
360
E564
  0
DICTIONARY
  5
732
330
1F
100
AcDbDictionary
280
     1
281
     1
  3
ACAD_SORTENTS
360
733
  0
DICTIONARY
  5
F95D
330
EC57
100
AcDbDictionary
280
     1
281
     1
  3
ACAD_MTEXT_RT
360
F95E
  0
DICTIONARY
  5
F95F
330
EC80
100
AcDbDictionary
280
     1
281
     1
  3
ACAD_MTEXT_RT
360
F960
  0
DICTIONARY
  5
F961
330
EC95
100
AcDbDictionary
280
     1
281
     1
  3
ACAD_MTEXT_RT
360
F962
  0
DICTIONARY
  5
F963
330
ECBA
100
AcDbDictionary
280
     1
281
     1
  3
ACAD_MTEXT_RT
360
F964
  0
DICTIONARY
  5
F965
330
F46C
100
AcDbDictionary
280
     1
281
     1
  3
ACAD_MTEXT_RT
360
F966
  0
DICTIONARY
  5
F967
330
F46D
100
AcDbDictionary
280
     1
281
     1
  3
ACAD_MTEXT_RT
360
F968
  0
DICTIONARY
  5
F969
330
F482
100
AcDbDictionary
280
     1
281
     1
  3
ACAD_MTEXT_RT
360
F96A
  0
DICTIONARY
  5
F96B
330
F483
100
AcDbDictionary
280
     1
281
     1
  3
ACAD_MTEXT_RT
360
F96C
  0
DICTIONARY
  5
F96D
330
F4CA
100
AcDbDictionary
280
     1
281
     1
  3
ACAD_MTEXT_RT
360
F96E
  0
DICTIONARY
  5
6B
102
{ACAD_REACTORS
330
C
102
}
330
C
100
AcDbDictionary
281
     1
  0
DICTIONARY
  5
D
102
{ACAD_REACTORS
330
C
102
}
330
C
100
AcDbDictionary
281
     1
  0
DICTIONARY
  5
1A
102
{ACAD_REACTORS
330
C
102
}
330
C
100
AcDbDictionary
281
     1
  3
Model
350
22
  3
Stilprofile
350
D3
  0
DICTIONARY
  5
6A
102
{ACAD_REACTORS
330
C
102
}
330
C
100
AcDbDictionary
281
     1
  3
ByBlock
350
ED
  3
ByLayer
350
EC
  3
Global
350
EE
  0
DICTIONARY
  5
17
102
{ACAD_REACTORS
330
C
102
}
330
C
100
AcDbDictionary
281
     1
  3
Standard
350
18
  0
DICTIONARY
  5
19
102
{ACAD_REACTORS
330
C
102
}
330
C
100
AcDbDictionary
281
     1
  0
ACDBDICTIONARYWDFLT
  5
E
102
{ACAD_REACTORS
330
C
102
}
330
C
100
AcDbDictionary
281
     1
  3
Normal
350
F
100
AcDbDictionaryWithDefault
340
F
  0
DICTIONARY
  5
7E
102
{ACAD_REACTORS
330
C
102
}
330
C
100
AcDbDictionary
281
     1
  3
Standard
350
7F
  0
DICTIONARY
  5
EF
102
{ACAD_REACTORS
330
C
102
}
330
C
100
AcDbDictionary
281
     1
  3
2dWireframe
350
F5
  3
3D Hidden
350
F7
  3
3dWireframe
350
F6
  3
Basic
350
F4
  3
Brighten
350
FB
  3
ColorChange
350
FF
  3
Conceptual
350
F8
  3
Dim
350
FA
  3
Facepattern
350
FE
  3
Flat
350
F0
  3
FlatWithEdges
350
F1
  3
Gouraud
350
F2
  3
GouraudWithEdges
350
F3
  3
Linepattern
350
FD
  3
Realistic
350
F9
  3
Thicken
350
FC
  0
DICTIONARY
  5
5E
102
{ACAD_REACTORS
330
C
102
}
330
C
100
AcDbDictionary
281
     1
  3
CTABLESTYLE
350
84
  3
DIMASSOC
350
5F
  3
HIDETEXT
350
63
  3
INDEXCTL
350
70A
  3
PSOLHEIGHT
350
F95A
  3
PSOLWIDTH
350
F959
  3
SORTENTS
350
709
  0
DICTIONARY
  5
E565
102
{ACAD_REACTORS
330
120
102
}
330
120
100
AcDbDictionary
281
     1
  0
DICTIONARY
  5
121
102
{ACAD_REACTORS
330
120
102
}
330
120
100
AcDbDictionary
281
     1
  0
DICTIONARY
  5
E564
102
{ACAD_REACTORS
330
120
102
}
330
120
100
AcDbDictionary
281
     1
1001
ACAD
1000
<All
  0
SORTENTSTABLE
  5
733
102
{ACAD_REACTORS
330
732
102
}
330
732
100
AcDbSortentsTable
330
1F
331
EC95
  5
F4CB
331
9595
  5
B772
331
F482
  5
F594
331
9239
  5
9C62
331
F536
  5
B77B
331
EC94
  5
F4CA
331
F596
  5
ECDF
331
F595
  5
BD9A
331
964E
  5
B775
331
F47F
  5
F593
331
B77B
  5
EC97
331
B864
  5
EC82
331
F594
  5
901D
331
AA00
  5
B8AD
331
A987
  5
C0B9
331
F4A8
  5
F596
331
9C85
  5
B77E
331
F592
  5
EC98
331
8FED
  5
9579
331
F591
  5
979E
331
F4CA
  5
F59A
331
F4C3
  5
ECBB
331
8F8F
  5
8FBF
331
BEC5
  5
F47F
331
F59A
  5
B774
331
EC4B
  5
F480
331
8F8E
  5
8FBC
331
9703
  5
9D0A
331
BEC4
  5
ECDE
331
ECBB
  5
F590
331
ECBA
  5
F58F
331
9237
  5
979D
331
B679
  5
EC96
331
EC80
  5
F4AA
331
9244
  5
975C
331
F50E
  5
F483
331
A4A7
  5
B8C2
331
F46D
  5
F592
331
F483
  5
F595
331
ECB9
  5
F50F
331
EC96
  5
F50E
331
F46C
  5
F591
331
EC57
  5
F4A8
331
9C8B
  5
B898
  0
XRECORD
  5
F95E
102
{ACAD_REACTORS
330
F95D
102
}
330
F95D
100
AcDbXrecord
280
     1
 40
249895.0
  1
{\fArial|b1|i0|c0|p34;Kämpferprofil 1B\P(große Ausführung)}
  0
XRECORD
  5
F960
102
{ACAD_REACTORS
330
F95F
102
}
330
F95F
100
AcDbXrecord
280
     1
 40
227408.0
  1
{\fArial|b1|i0|c0|p34;Kämpferprofil 1A\P(kleine Ausführung)}
  0
XRECORD
  5
F962
102
{ACAD_REACTORS
330
F961
102
}
330
F961
100
AcDbXrecord
280
     1
 40
293718.0
  1
{\fArial|b0|i0|c0|p34;Zeichnung ohne Gewähr; Änderungen vorbehalten}
  0
XRECORD
  5
F964
102
{ACAD_REACTORS
330
F963
102
}
330
F963
100
AcDbXrecord
280
     1
 40
131578.0
  1
{\fArial|b1|i0|c0|p34;Oberfläche\P beschichtet}
  0
XRECORD
  5
F966
102
{ACAD_REACTORS
330
F965
102
}
330
F965
100
AcDbXrecord
280
     1
 40
223086.0
  1
{\fArial|b1|i0|c0|p34;Sohlbankprofil 2B\P(große Ausführung)}
  0
XRECORD
  5
F968
102
{ACAD_REACTORS
330
F967
102
}
330
F967
100
AcDbXrecord
280
     1
 40
201859.0
  1
{\fArial|b1|i0|c0|p34;Sohlbankprofil 2A\P(kleine Ausführung)}
  0
XRECORD
  5
F96A
102
{ACAD_REACTORS
330
F969
102
}
330
F969
100
AcDbXrecord
280
     1
 40
223317.0
  1
{\fArial|b1|i0|c0|p34;Wetterschenkel 4B\P(große Ausführung)}
  0
XRECORD
  5
F96C
102
{ACAD_REACTORS
330
F96B
102
}
330
F96B
100
AcDbXrecord
280
     1
 40
202090.0
  1
{\fArial|b1|i0|c0|p34;Wetterschenkel 4A\P(kleine Ausführung)}
  0
XRECORD
  5
F96E
102
{ACAD_REACTORS
330
F96D
102
}
330
F96D
100
AcDbXrecord
280
     1
 40
204822.0
  1
{\fArial|b1|i0|c0|p34;Kapitell  6B\P(geschnitzt oder gefräst)}
  0
LAYOUT
  5
22
102
{ACAD_REACTORS
330
1A
102
}
330
1A
100
AcDbPlotSettings
  1

  2
\\ideal2000-01\RICOH Aficio MP 161 PCL 6
  4
A4
  6

 40
5.027082920074462
 41
5.027085781097412
 42
5.027069091796875
 43
5.027069091796875
 44
209.9733276367186
 45
296.9259948730469
 46
-5.040412187576293
 47
-5.064079999923761
 48
359.5660209306284
 49
-16.68836601029511
140
565.9289258046838
141
507.9612578336844
142
1.0
143
1.0
 70
 11940
 72
     1
 73
     0
 74
     2
  7
Grayscale.ctb
 75
     0
147
0.5467874691271346
 76
     0
 77
     2
 78
   300
148
-697.0102226971842
149
495.7602686807022
100
AcDbLayout
  1
Model
 70
     1
 71
     0
 10
0.0
 20
0.0
 11
12.0
 21
9.0
 12
0.0
 22
0.0
 32
0.0
 14
0.0
 24
0.0
 34
0.0
 15
0.0
 25
0.0
 35
0.0
146
0.0
 13
0.0
 23
0.0
 33
0.0
 16
1.0
 26
0.0
 36
0.0
 17
0.0
 27
1.0
 37
0.0
 76
     0
330
1F
331
EA
1001
ACAD_PSEXT
1000
\\ideal2000-01\RICOH Aficio MP 161 PCL 6
1000
RICOH Aficio MP 161 PCL 6
1000
Bei Hern Becker an JetAdmin 172.16.99.14
1000

1070
     0
  0
LAYOUT
  5
D3
102
{ACAD_XDICTIONARY
360
1785
102
}
102
{ACAD_REACTORS
330
1A
102
}
330
1A
100
AcDbPlotSettings
  1

  2
Adobe PDF
  4
A4
  6

 40
3.174999952316281
 41
3.174999952316281
 42
3.175003051757812
 43
3.17498779296875
 44
209.9733276367186
 45
297.0318298339844
 46
2.825000047683714
 47
2.825000047683714
 48
0.0
 49
0.0
140
0.0
141
0.0
142
1.0
143
1.0
 70
   672
 72
     1
 73
     0
 74
     5
  7
Grayscale.ctb
 75
    16
147
1.0
 76
     0
 77
     2
 78
   300
148
0.0
149
0.0
100
AcDbLayout
  1
Stilprofile
 70
     1
 71
     1
 10
-5.999999999999997
 20
-5.999999999999997
 11
203.9733276367186
 21
291.0318298339844
 12
0.0
 22
0.0
 32
0.0
 14
-6.000000278478736
 24
-6.000000213669209
 34
0.0
 15
203.9733265301375
 25
291.0318296783675
 35
0.0
146
0.0
 13
0.0
 23
0.0
 33
0.0
 16
1.0
 26
0.0
 36
0.0
 17
0.0
 27
1.0
 37
0.0
 76
     0
330
D2
331
1780
1001
ACAD_PSEXT
1000
Adobe PDF
1000
Adobe PDF Converter
1000
Eigene Dateien
1000

1070
     0
  0
MATERIAL
  5
ED
102
{ACAD_XDICTIONARY
360
718
102
}
102
{ACAD_REACTORS
330
6A
102
}
330
6A
100
AcDbMaterial
  1
ByBlock
  0
MATERIAL
  5
EC
102
{ACAD_XDICTIONARY
360
716
102
}
102
{ACAD_REACTORS
330
6A
102
}
330
6A
100
AcDbMaterial
  1
ByLayer
  0
MATERIAL
  5
EE
102
{ACAD_XDICTIONARY
360
71A
102
}
102
{ACAD_REACTORS
330
6A
102
}
330
6A
100
AcDbMaterial
  1
Global
  0
MLINESTYLE
  5
18
102
{ACAD_REACTORS
330
17
102
}
330
17
100
AcDbMlineStyle
  2
STANDARD
 70
     0
  3

 62
   256
 51
90.0
 52
90.0
 71
     2
 49
0.5
 62
   256
  6
BYLAYER
 49
-0.5
 62
   256
  6
BYLAYER
  0
ACDBPLACEHOLDER
  5
F
102
{ACAD_REACTORS
330
E
102
}
330
E
  0
TABLESTYLE
  5
7F
102
{ACAD_XDICTIONARY
360
F95B
102
}
102
{ACAD_REACTORS
330
7E
102
}
330
7E
100
AcDbTableStyle
  3
Standard
 70
     0
 71
     0
 40
1.5
 41
1.5
280
     0
281
     0
  7
Standard
140
4.5
170
     2
 62
     0
 63
     7
283
     0
274
    -2
284
     1
 64
     0
275
    -2
285
     1
 65
     0
276
    -2
286
     1
 66
     0
277
    -2
287
     1
 67
     0
278
    -2
288
     1
 68
     0
279
    -2
289
     1
 69
     0
  7
Standard
140
6.0
170
     5
 62
     0
 63
     7
283
     0
274
    -2
284
     1
 64
     0
275
    -2
285
     1
 65
     0
276
    -2
286
     1
 66
     0
277
    -2
287
     1
 67
     0
278
    -2
288
     1
 68
     0
279
    -2
289
     1
 69
     0
  7
Standard
140
4.5
170
     5
 62
     0
 63
     7
283
     0
274
    -2
284
     1
 64
     0
275
    -2
285
     1
 65
     0
276
    -2
286
     1
 66
     0
277
    -2
287
     1
 67
     0
278
    -2
288
     1
 68
     0
279
    -2
289
     1
 69
     0
  0
VISUALSTYLE
  5
F5
102
{ACAD_REACTORS
330
EF
102
}
330
EF
100
AcDbVisualStyle
  2
2dWireframe
 70
     4
 71
     0
 72
     2
 73
     1
 90
        0
 40
-0.6
 41
-30.0
 62
     5
 63
     7
 74
     1
 91
        4
 64
     7
 65
   257
 75
     1
175
     1
 42
1.0
 92
        0
 66
   257
 43
1.0
 76
     1
 77
     6
 78
     2
 67
     7
 79
     5
170
     0
171
     0
290
     0
174
     0
 93
        1
 44
0.0
173
     0
291
     0
 45
0.0
1001
ACAD
1000
AcDbSavedByObjectVersion
1070
     0
1000
AcDbSavedByObjectVersion
1070
     0
1000
AcDbSavedByObjectVersion
1070
     0
1000
AcDbSavedByObjectVersion
1070
     0
1000
AcDbSavedByObjectVersion
1070
     0
1000
AcDbSavedByObjectVersion
1070
     0
1000
AcDbSavedByObjectVersion
1070
     0
1000
AcDbSavedByObjectVersion
1070
     0
1000
AcDbSavedByObjectVersion
1070
     0
1000
AcDbSavedByObjectVersion
1070
     0
1000
AcDbSavedByObjectVersion
1070
     0
1000
AcDbSavedByObjectVersion
1070
     0
1000
AcDbSavedByObjectVersion
1070
     0
1000
AcDbSavedByObjectVersion
1070
     0
1000
AcDbSavedByObjectVersion
1070
     0
1000
AcDbSavedByObjectVersion
1070
     0
1000
AcDbSavedByObjectVersion
1070
     0
1000
AcDbSavedByObjectVersion
1070
     0
1000
AcDbSavedByObjectVersion
1070
     0
1000
AcDbSavedByObjectVersion
1070
     0
1000
AcDbSavedByObjectVersion
1070
     0
1000
AcDbSavedByObjectVersion
1070
     0
1000
AcDbSavedByObjectVersion
1070
     0
1000
AcDbSavedByObjectVersion
1070
     0
1000
AcDbSavedByObjectVersion
1070
     0
1000
AcDbSavedByObjectVersion
1070
     0
1000
AcDbSavedByObjectVersion
1070
     0
  0
VISUALSTYLE
  5
F7
102
{ACAD_REACTORS
330
EF
102
}
330
EF
100
AcDbVisualStyle
  2
3D Hidden
 70
     6
 71
     1
 72
     2
 73
     2
 90
        0
 40
-0.6
 41
-30.0
 62
     5
 63
     7
 74
     2
 91
        2
 64
     7
 65
   257
 75
     2
175
     1
 42
40.0
 92
        0
 66
   257
 43
1.0
 76
     1
 77
     6
 78
     2
 67
     7
 79
     3
170
     0
171
     0
290
     0
174
     0
 93
        1
 44
0.0
173
     0
291
     0
 45
0.0
1001
ACAD
1000
AcDbSavedByObjectVersion
1070
     0
1000
AcDbSavedByObjectVersion
1070
     0
1000
AcDbSavedByObjectVersion
1070
     0
1000
AcDbSavedByObjectVersion
1070
     0
1000
AcDbSavedByObjectVersion
1070
     0
1000
AcDbSavedByObjectVersion
1070
     0
1000
AcDbSavedByObjectVersion
1070
     0
1000
AcDbSavedByObjectVersion
1070
     0
1000
AcDbSavedByObjectVersion
1070
     0
1000
AcDbSavedByObjectVersion
1070
     0
1000
AcDbSavedByObjectVersion
1070
     0
1000
AcDbSavedByObjectVersion
1070
     0
1000
AcDbSavedByObjectVersion
1070
     0
1000
AcDbSavedByObjectVersion
1070
     0
1000
AcDbSavedByObjectVersion
1070
     0
1000
AcDbSavedByObjectVersion
1070
     0
1000
AcDbSavedByObjectVersion
1070
     0
1000
AcDbSavedByObjectVersion
1070
     0
1000
AcDbSavedByObjectVersion
1070
     0
1000
AcDbSavedByObjectVersion
1070
     0
1000
AcDbSavedByObjectVersion
1070
     0
1000
AcDbSavedByObjectVersion
1070
     0
1000
AcDbSavedByObjectVersion
1070
     0
1000
AcDbSavedByObjectVersion
1070
     0
1000
AcDbSavedByObjectVersion
1070
     0
1000
AcDbSavedByObjectVersion
1070
     0
1000
AcDbSavedByObjectVersion
1070
     0
  0
VISUALSTYLE
  5
F6
102
{ACAD_REACTORS
330
EF
102
}
330
EF
100
AcDbVisualStyle
  2
3dWireframe
 70
     5
 71
     0
 72
     2
 73
     1
 90
        0
 40
-0.6
 41
-30.0
 62
     5
 63
     7
 74
     1
 91
        4
 64
     7
 65
   257
 75
     1
175
     1
 42
1.0
 92
        0
 66
   257
 43
1.0
 76
     1
 77
     6
 78
     2
 67
     7
 79
     5
170
     0
171
     0
290
     0
174
     0
 93
        1
 44
0.0
173
     0
291
     0
 45
0.0
1001
ACAD
1000
AcDbSavedByObjectVersion
1070
     0
1000
AcDbSavedByObjectVersion
1070
     0
1000
AcDbSavedByObjectVersion
1070
     0
1000
AcDbSavedByObjectVersion
1070
     0
1000
AcDbSavedByObjectVersion
1070
     0
1000
AcDbSavedByObjectVersion
1070
     0
1000
AcDbSavedByObjectVersion
1070
     0
1000
AcDbSavedByObjectVersion
1070
     0
1000
AcDbSavedByObjectVersion
1070
     0
1000
AcDbSavedByObjectVersion
1070
     0
1000
AcDbSavedByObjectVersion
1070
     0
1000
AcDbSavedByObjectVersion
1070
     0
1000
AcDbSavedByObjectVersion
1070
     0
1000
AcDbSavedByObjectVersion
1070
     0
1000
AcDbSavedByObjectVersion
1070
     0
1000
AcDbSavedByObjectVersion
1070
     0
1000
AcDbSavedByObjectVersion
1070
     0
1000
AcDbSavedByObjectVersion
1070
     0
1000
AcDbSavedByObjectVersion
1070
     0
1000
AcDbSavedByObjectVersion
1070
     0
1000
AcDbSavedByObjectVersion
1070
     0
1000
AcDbSavedByObjectVersion
1070
     0
1000
AcDbSavedByObjectVersion
1070
     0
1000
AcDbSavedByObjectVersion
1070
     0
1000
AcDbSavedByObjectVersion
1070
     0
1000
AcDbSavedByObjectVersion
1070
     0
1000
AcDbSavedByObjectVersion
1070
     0
  0
VISUALSTYLE
  5
F4
102
{ACAD_REACTORS
330
EF
102
}
330
EF
100
AcDbVisualStyle
  2
Basic
 70
     7
 71
     1
 72
     0
 73
     1
 90
        0
 40
-0.6
 41
-30.0
 62
     5
 63
     7
 74
     0
 91
        4
 64
     7
 65
   257
 75
     1
175
     1
 42
1.0
 92
        8
 66
     7
 43
1.0
 76
     1
 77
     6
 78
     2
 67
     7
 79
     5
170
     0
171
     0
290
     0
174
     0
 93
        1
 44
0.0
173
     0
291
     1
 45
0.0
1001
ACAD
1000
AcDbSavedByObjectVersion
1070
     0
1000
AcDbSavedByObjectVersion
1070
     0
1000
AcDbSavedByObjectVersion
1070
     0
1000
AcDbSavedByObjectVersion
1070
     0
1000
AcDbSavedByObjectVersion
1070
     0
1000
AcDbSavedByObjectVersion
1070
     0
1000
AcDbSavedByObjectVersion
1070
     0
1000
AcDbSavedByObjectVersion
1070
     0
1000
AcDbSavedByObjectVersion
1070
     0
1000
AcDbSavedByObjectVersion
1070
     0
1000
AcDbSavedByObjectVersion
1070
     0
1000
AcDbSavedByObjectVersion
1070
     0
1000
AcDbSavedByObjectVersion
1070
     0
1000
AcDbSavedByObjectVersion
1070
     0
1000
AcDbSavedByObjectVersion
1070
     0
1000
AcDbSavedByObjectVersion
1070
     0
1000
AcDbSavedByObjectVersion
1070
     0
1000
AcDbSavedByObjectVersion
1070
     0
1000
AcDbSavedByObjectVersion
1070
     0
1000
AcDbSavedByObjectVersion
1070
     0
1000
AcDbSavedByObjectVersion
1070
     0
1000
AcDbSavedByObjectVersion
1070
     0
1000
AcDbSavedByObjectVersion
1070
     0
1000
AcDbSavedByObjectVersion
1070
     0
1000
AcDbSavedByObjectVersion
1070
     0
1000
AcDbSavedByObjectVersion
1070
     0
1000
AcDbSavedByObjectVersion
1070
     0
  0
VISUALSTYLE
  5
FB
102
{ACAD_REACTORS
330
EF
102
}
330
EF
100
AcDbVisualStyle
  2
Brighten
 70
    12
 71
     2
 72
     2
 73
     1
 90
        0
 40
-0.6
 41
-30.0
 62
     5
 63
     7
 74
     1
 91
        4
 64
     7
 65
   257
 75
     1
175
     1
 42
1.0
 92
        8
 66
     7
 43
1.0
 76
     1
 77
     6
 78
     2
 67
     7
 79
     5
170
     0
171
     0
290
     0
174
     0
 93
        1
 44
50.0
173
     0
291
     1
 45
0.0
1001
ACAD
1000
AcDbSavedByObjectVersion
1070
     0
1000
AcDbSavedByObjectVersion
1070
     0
1000
AcDbSavedByObjectVersion
1070
     0
1000
AcDbSavedByObjectVersion
1070
     0
1000
AcDbSavedByObjectVersion
1070
     0
1000
AcDbSavedByObjectVersion
1070
     0
1000
AcDbSavedByObjectVersion
1070
     0
1000
AcDbSavedByObjectVersion
1070
     0
1000
AcDbSavedByObjectVersion
1070
     0
1000
AcDbSavedByObjectVersion
1070
     0
1000
AcDbSavedByObjectVersion
1070
     0
1000
AcDbSavedByObjectVersion
1070
     0
1000
AcDbSavedByObjectVersion
1070
     0
1000
AcDbSavedByObjectVersion
1070
     0
1000
AcDbSavedByObjectVersion
1070
     0
1000
AcDbSavedByObjectVersion
1070
     0
1000
AcDbSavedByObjectVersion
1070
     0
1000
AcDbSavedByObjectVersion
1070
     0
1000
AcDbSavedByObjectVersion
1070
     0
1000
AcDbSavedByObjectVersion
1070
     0
1000
AcDbSavedByObjectVersion
1070
     0
1000
AcDbSavedByObjectVersion
1070
     0
1000
AcDbSavedByObjectVersion
1070
     0
1000
AcDbSavedByObjectVersion
1070
     0
1000
AcDbSavedByObjectVersion
1070
     0
1000
AcDbSavedByObjectVersion
1070
     0
1000
AcDbSavedByObjectVersion
1070
     0
  0
VISUALSTYLE
  5
FF
102
{ACAD_REACTORS
330
EF
102
}
330
EF
100
AcDbVisualStyle
  2
ColorChange
 70
    16
 71
     2
 72
     2
 73
     3
 90
        0
 40
-0.6
 41
-30.0
 62
     5
 63
     8
 74
     1
 91
        4
 64
     7
 65
   257
 75
     1
175
     1
 42
1.0
 92
        8
 66
     8
 43
1.0
 76
     1
 77
     6
 78
     2
 67
     7
 79
     5
170
     0
171
     0
290
     0
174
     0
 93
        1
 44
0.0
173
     0
291
     1
 45
0.0
1001
ACAD
1000
AcDbSavedByObjectVersion
1070
     0
1000
AcDbSavedByObjectVersion
1070
     0
1000
AcDbSavedByObjectVersion
1070
     0
1000
AcDbSavedByObjectVersion
1070
     0
1000
AcDbSavedByObjectVersion
1070
     0
1000
AcDbSavedByObjectVersion
1070
     0
1000
AcDbSavedByObjectVersion
1070
     0
1000
AcDbSavedByObjectVersion
1070
     0
1000
AcDbSavedByObjectVersion
1070
     0
1000
AcDbSavedByObjectVersion
1070
     0
1000
AcDbSavedByObjectVersion
1070
     0
1000
AcDbSavedByObjectVersion
1070
     0
1000
AcDbSavedByObjectVersion
1070
     0
1000
AcDbSavedByObjectVersion
1070
     0
1000
AcDbSavedByObjectVersion
1070
     0
1000
AcDbSavedByObjectVersion
1070
     0
1000
AcDbSavedByObjectVersion
1070
     0
1000
AcDbSavedByObjectVersion
1070
     0
1000
AcDbSavedByObjectVersion
1070
     0
1000
AcDbSavedByObjectVersion
1070
     0
1000
AcDbSavedByObjectVersion
1070
     0
1000
AcDbSavedByObjectVersion
1070
     0
1000
AcDbSavedByObjectVersion
1070
     0
1000
AcDbSavedByObjectVersion
1070
     0
1000
AcDbSavedByObjectVersion
1070
     0
1000
AcDbSavedByObjectVersion
1070
     0
1000
AcDbSavedByObjectVersion
1070
     0
  0
VISUALSTYLE
  5
F8
102
{ACAD_REACTORS
330
EF
102
}
330
EF
100
AcDbVisualStyle
  2
Conceptual
 70
     9
 71
     3
 72
     2
 73
     1
 90
        0
 40
-0.6
 41
-30.0
 62
     5
 63
     7
 74
     2
 91
        2
 64
     7
 65
   257
 75
     1
175
     1
 42
40.0
 92
        8
 66
     7
 43
1.0
 76
     1
 77
     6
 78
     2
 67
     7
 79
     3
170
     0
171
     0
290
     0
174
     0
 93
        1
 44
0.0
173
     0
291
     0
 45
0.0
1001
ACAD
1000
AcDbSavedByObjectVersion
1070
     0
1000
AcDbSavedByObjectVersion
1070
     0
1000
AcDbSavedByObjectVersion
1070
     0
1000
AcDbSavedByObjectVersion
1070
     0
1000
AcDbSavedByObjectVersion
1070
     0
1000
AcDbSavedByObjectVersion
1070
     0
1000
AcDbSavedByObjectVersion
1070
     0
1000
AcDbSavedByObjectVersion
1070
     0
1000
AcDbSavedByObjectVersion
1070
     0
1000
AcDbSavedByObjectVersion
1070
     0
1000
AcDbSavedByObjectVersion
1070
     0
1000
AcDbSavedByObjectVersion
1070
     0
1000
AcDbSavedByObjectVersion
1070
     0
1000
AcDbSavedByObjectVersion
1070
     0
1000
AcDbSavedByObjectVersion
1070
     0
1000
AcDbSavedByObjectVersion
1070
     0
1000
AcDbSavedByObjectVersion
1070
     0
1000
AcDbSavedByObjectVersion
1070
     0
1000
AcDbSavedByObjectVersion
1070
     0
1000
AcDbSavedByObjectVersion
1070
     0
1000
AcDbSavedByObjectVersion
1070
     0
1000
AcDbSavedByObjectVersion
1070
     0
1000
AcDbSavedByObjectVersion
1070
     0
1000
AcDbSavedByObjectVersion
1070
     0
1000
AcDbSavedByObjectVersion
1070
     0
1000
AcDbSavedByObjectVersion
1070
     0
1000
AcDbSavedByObjectVersion
1070
     0
  0
VISUALSTYLE
  5
FA
102
{ACAD_REACTORS
330
EF
102
}
330
EF
100
AcDbVisualStyle
  2
Dim
 70
    11
 71
     2
 72
     2
 73
     1
 90
        0
 40
-0.6
 41
-30.0
 62
     5
 63
     7
 74
     1
 91
        4
 64
     7
 65
   257
 75
     1
175
     1
 42
1.0
 92
        8
 66
     7
 43
1.0
 76
     1
 77
     6
 78
     2
 67
     7
 79
     5
170
     0
171
     0
290
     0
174
     0
 93
        1
 44
-50.0
173
     0
291
     1
 45
0.0
1001
ACAD
1000
AcDbSavedByObjectVersion
1070
     0
1000
AcDbSavedByObjectVersion
1070
     0
1000
AcDbSavedByObjectVersion
1070
     0
1000
AcDbSavedByObjectVersion
1070
     0
1000
AcDbSavedByObjectVersion
1070
     0
1000
AcDbSavedByObjectVersion
1070
     0
1000
AcDbSavedByObjectVersion
1070
     0
1000
AcDbSavedByObjectVersion
1070
     0
1000
AcDbSavedByObjectVersion
1070
     0
1000
AcDbSavedByObjectVersion
1070
     0
1000
AcDbSavedByObjectVersion
1070
     0
1000
AcDbSavedByObjectVersion
1070
     0
1000
AcDbSavedByObjectVersion
1070
     0
1000
AcDbSavedByObjectVersion
1070
     0
1000
AcDbSavedByObjectVersion
1070
     0
1000
AcDbSavedByObjectVersion
1070
     0
1000
AcDbSavedByObjectVersion
1070
     0
1000
AcDbSavedByObjectVersion
1070
     0
1000
AcDbSavedByObjectVersion
1070
     0
1000
AcDbSavedByObjectVersion
1070
     0
1000
AcDbSavedByObjectVersion
1070
     0
1000
AcDbSavedByObjectVersion
1070
     0
1000
AcDbSavedByObjectVersion
1070
     0
1000
AcDbSavedByObjectVersion
1070
     0
1000
AcDbSavedByObjectVersion
1070
     0
1000
AcDbSavedByObjectVersion
1070
     0
1000
AcDbSavedByObjectVersion
1070
     0
  0
VISUALSTYLE
  5
FE
102
{ACAD_REACTORS
330
EF
102
}
330
EF
100
AcDbVisualStyle
  2
Facepattern
 70
    15
 71
     2
 72
     2
 73
     1
 90
        0
 40
-0.6
 41
-30.0
 62
     5
 63
     7
 74
     1
 91
        4
 64
     7
 65
   257
 75
     1
175
     1
 42
1.0
 92
        8
 66
     7
 43
1.0
 76
     1
 77
     6
 78
     2
 67
     7
 79
     5
170
     0
171
     0
290
     0
174
     0
 93
        1
 44
0.0
173
     0
291
     1
 45
0.0
1001
ACAD
1000
AcDbSavedByObjectVersion
1070
     0
1000
AcDbSavedByObjectVersion
1070
     0
1000
AcDbSavedByObjectVersion
1070
     0
1000
AcDbSavedByObjectVersion
1070
     0
1000
AcDbSavedByObjectVersion
1070
     0
1000
AcDbSavedByObjectVersion
1070
     0
1000
AcDbSavedByObjectVersion
1070
     0
1000
AcDbSavedByObjectVersion
1070
     0
1000
AcDbSavedByObjectVersion
1070
     0
1000
AcDbSavedByObjectVersion
1070
     0
1000
AcDbSavedByObjectVersion
1070
     0
1000
AcDbSavedByObjectVersion
1070
     0
1000
AcDbSavedByObjectVersion
1070
     0
1000
AcDbSavedByObjectVersion
1070
     0
1000
AcDbSavedByObjectVersion
1070
     0
1000
AcDbSavedByObjectVersion
1070
     0
1000
AcDbSavedByObjectVersion
1070
     0
1000
AcDbSavedByObjectVersion
1070
     0
1000
AcDbSavedByObjectVersion
1070
     0
1000
AcDbSavedByObjectVersion
1070
     0
1000
AcDbSavedByObjectVersion
1070
     0
1000
AcDbSavedByObjectVersion
1070
     0
1000
AcDbSavedByObjectVersion
1070
     0
1000
AcDbSavedByObjectVersion
1070
     0
1000
AcDbSavedByObjectVersion
1070
     0
1000
AcDbSavedByObjectVersion
1070
     0
1000
AcDbSavedByObjectVersion
1070
     0
  0
VISUALSTYLE
  5
F0
102
{ACAD_REACTORS
330
EF
102
}
330
EF
100
AcDbVisualStyle
  2
Flat
 70
     0
 71
     2
 72
     1
 73
     1
 90
        2
 40
-0.6
 41
30.0
 62
     5
 63
     7
 74
     0
 91
        4
 64
     7
 65
   257
 75
     1
175
     1
 42
1.0
 92
        8
 66
     7
 43
1.0
 76
     1
 77
     6
 78
     2
 67
     7
 79
     5
170
     0
171
     0
290
     0
174
     0
 93
        1
 44
0.0
173
     0
291
     1
 45
0.0
1001
ACAD
1000
AcDbSavedByObjectVersion
1070
     0
1000
AcDbSavedByObjectVersion
1070
     0
1000
AcDbSavedByObjectVersion
1070
     0
1000
AcDbSavedByObjectVersion
1070
     0
1000
AcDbSavedByObjectVersion
1070
     0
1000
AcDbSavedByObjectVersion
1070
     0
1000
AcDbSavedByObjectVersion
1070
     0
1000
AcDbSavedByObjectVersion
1070
     0
1000
AcDbSavedByObjectVersion
1070
     0
1000
AcDbSavedByObjectVersion
1070
     0
1000
AcDbSavedByObjectVersion
1070
     0
1000
AcDbSavedByObjectVersion
1070
     0
1000
AcDbSavedByObjectVersion
1070
     0
1000
AcDbSavedByObjectVersion
1070
     0
1000
AcDbSavedByObjectVersion
1070
     0
1000
AcDbSavedByObjectVersion
1070
     0
1000
AcDbSavedByObjectVersion
1070
     0
1000
AcDbSavedByObjectVersion
1070
     0
1000
AcDbSavedByObjectVersion
1070
     0
1000
AcDbSavedByObjectVersion
1070
     0
1000
AcDbSavedByObjectVersion
1070
     0
1000
AcDbSavedByObjectVersion
1070
     0
1000
AcDbSavedByObjectVersion
1070
     0
1000
AcDbSavedByObjectVersion
1070
     0
1000
AcDbSavedByObjectVersion
1070
     0
1000
AcDbSavedByObjectVersion
1070
     0
1000
AcDbSavedByObjectVersion
1070
     0
  0
VISUALSTYLE
  5
F1
102
{ACAD_REACTORS
330
EF
102
}
330
EF
100
AcDbVisualStyle
  2
FlatWithEdges
 70
     1
 71
     2
 72
     1
 73
     1
 90
        2
 40
-0.6
 41
30.0
 62
     5
 63
     7
 74
     1
 91
        4
 64
     7
 65
   257
 75
     1
175
     1
 42
1.0
 92
        0
 66
   257
 43
1.0
 76
     1
 77
     6
 78
     2
 67
     7
 79
     5
170
     0
171
     0
290
     0
174
     0
 93
        1
 44
0.0
173
     0
291
     1
 45
0.0
1001
ACAD
1000
AcDbSavedByObjectVersion
1070
     0
1000
AcDbSavedByObjectVersion
1070
     0
1000
AcDbSavedByObjectVersion
1070
     0
1000
AcDbSavedByObjectVersion
1070
     0
1000
AcDbSavedByObjectVersion
1070
     0
1000
AcDbSavedByObjectVersion
1070
     0
1000
AcDbSavedByObjectVersion
1070
     0
1000
AcDbSavedByObjectVersion
1070
     0
1000
AcDbSavedByObjectVersion
1070
     0
1000
AcDbSavedByObjectVersion
1070
     0
1000
AcDbSavedByObjectVersion
1070
     0
1000
AcDbSavedByObjectVersion
1070
     0
1000
AcDbSavedByObjectVersion
1070
     0
1000
AcDbSavedByObjectVersion
1070
     0
1000
AcDbSavedByObjectVersion
1070
     0
1000
AcDbSavedByObjectVersion
1070
     0
1000
AcDbSavedByObjectVersion
1070
     0
1000
AcDbSavedByObjectVersion
1070
     0
1000
AcDbSavedByObjectVersion
1070
     0
1000
AcDbSavedByObjectVersion
1070
     0
1000
AcDbSavedByObjectVersion
1070
     0
1000
AcDbSavedByObjectVersion
1070
     0
1000
AcDbSavedByObjectVersion
1070
     0
1000
AcDbSavedByObjectVersion
1070
     0
1000
AcDbSavedByObjectVersion
1070
     0
1000
AcDbSavedByObjectVersion
1070
     0
1000
AcDbSavedByObjectVersion
1070
     0
  0
VISUALSTYLE
  5
F2
102
{ACAD_REACTORS
330
EF
102
}
330
EF
100
AcDbVisualStyle
  2
Gouraud
 70
     2
 71
     2
 72
     2
 73
     1
 90
        2
 40
-0.6
 41
30.0
 62
     5
 63
     7
 74
     0
 91
        4
 64
     7
 65
   257
 75
     1
175
     1
 42
1.0
 92
        0
 66
     7
 43
1.0
 76
     1
 77
     6
 78
     2
 67
     7
 79
     5
170
     0
171
     0
290
     0
174
     0
 93
        1
 44
0.0
173
     0
291
     1
 45
0.0
1001
ACAD
1000
AcDbSavedByObjectVersion
1070
     0
1000
AcDbSavedByObjectVersion
1070
     0
1000
AcDbSavedByObjectVersion
1070
     0
1000
AcDbSavedByObjectVersion
1070
     0
1000
AcDbSavedByObjectVersion
1070
     0
1000
AcDbSavedByObjectVersion
1070
     0
1000
AcDbSavedByObjectVersion
1070
     0
1000
AcDbSavedByObjectVersion
1070
     0
1000
AcDbSavedByObjectVersion
1070
     0
1000
AcDbSavedByObjectVersion
1070
     0
1000
AcDbSavedByObjectVersion
1070
     0
1000
AcDbSavedByObjectVersion
1070
     0
1000
AcDbSavedByObjectVersion
1070
     0
1000
AcDbSavedByObjectVersion
1070
     0
1000
AcDbSavedByObjectVersion
1070
     0
1000
AcDbSavedByObjectVersion
1070
     0
1000
AcDbSavedByObjectVersion
1070
     0
1000
AcDbSavedByObjectVersion
1070
     0
1000
AcDbSavedByObjectVersion
1070
     0
1000
AcDbSavedByObjectVersion
1070
     0
1000
AcDbSavedByObjectVersion
1070
     0
1000
AcDbSavedByObjectVersion
1070
     0
1000
AcDbSavedByObjectVersion
1070
     0
1000
AcDbSavedByObjectVersion
1070
     0
1000
AcDbSavedByObjectVersion
1070
     0
1000
AcDbSavedByObjectVersion
1070
     0
1000
AcDbSavedByObjectVersion
1070
     0
  0
VISUALSTYLE
  5
F3
102
{ACAD_REACTORS
330
EF
102
}
330
EF
100
AcDbVisualStyle
  2
GouraudWithEdges
 70
     3
 71
     2
 72
     2
 73
     1
 90
        2
 40
-0.6
 41
30.0
 62
     5
 63
     7
 74
     1
 91
        4
 64
     7
 65
   257
 75
     1
175
     1
 42
1.0
 92
        0
 66
   257
 43
1.0
 76
     1
 77
     6
 78
     2
 67
     7
 79
     5
170
     0
171
     0
290
     0
174
     0
 93
        1
 44
0.0
173
     0
291
     1
 45
0.0
1001
ACAD
1000
AcDbSavedByObjectVersion
1070
     0
1000
AcDbSavedByObjectVersion
1070
     0
1000
AcDbSavedByObjectVersion
1070
     0
1000
AcDbSavedByObjectVersion
1070
     0
1000
AcDbSavedByObjectVersion
1070
     0
1000
AcDbSavedByObjectVersion
1070
     0
1000
AcDbSavedByObjectVersion
1070
     0
1000
AcDbSavedByObjectVersion
1070
     0
1000
AcDbSavedByObjectVersion
1070
     0
1000
AcDbSavedByObjectVersion
1070
     0
1000
AcDbSavedByObjectVersion
1070
     0
1000
AcDbSavedByObjectVersion
1070
     0
1000
AcDbSavedByObjectVersion
1070
     0
1000
AcDbSavedByObjectVersion
1070
     0
1000
AcDbSavedByObjectVersion
1070
     0
1000
AcDbSavedByObjectVersion
1070
     0
1000
AcDbSavedByObjectVersion
1070
     0
1000
AcDbSavedByObjectVersion
1070
     0
1000
AcDbSavedByObjectVersion
1070
     0
1000
AcDbSavedByObjectVersion
1070
     0
1000
AcDbSavedByObjectVersion
1070
     0
1000
AcDbSavedByObjectVersion
1070
     0
1000
AcDbSavedByObjectVersion
1070
     0
1000
AcDbSavedByObjectVersion
1070
     0
1000
AcDbSavedByObjectVersion
1070
     0
1000
AcDbSavedByObjectVersion
1070
     0
1000
AcDbSavedByObjectVersion
1070
     0
  0
VISUALSTYLE
  5
FD
102
{ACAD_REACTORS
330
EF
102
}
330
EF
100
AcDbVisualStyle
  2
Linepattern
 70
    14
 71
     2
 72
     2
 73
     1
 90
        0
 40
-0.6
 41
-30.0
 62
     5
 63
     7
 74
     1
 91
        4
 64
     7
 65
   257
 75
     7
175
     7
 42
1.0
 92
        8
 66
     7
 43
1.0
 76
     1
 77
     6
 78
     2
 67
     7
 79
     5
170
     0
171
     0
290
     0
174
     0
 93
        1
 44
0.0
173
     0
291
     1
 45
0.0
1001
ACAD
1000
AcDbSavedByObjectVersion
1070
     0
1000
AcDbSavedByObjectVersion
1070
     0
1000
AcDbSavedByObjectVersion
1070
     0
1000
AcDbSavedByObjectVersion
1070
     0
1000
AcDbSavedByObjectVersion
1070
     0
1000
AcDbSavedByObjectVersion
1070
     0
1000
AcDbSavedByObjectVersion
1070
     0
1000
AcDbSavedByObjectVersion
1070
     0
1000
AcDbSavedByObjectVersion
1070
     0
1000
AcDbSavedByObjectVersion
1070
     0
1000
AcDbSavedByObjectVersion
1070
     0
1000
AcDbSavedByObjectVersion
1070
     0
1000
AcDbSavedByObjectVersion
1070
     0
1000
AcDbSavedByObjectVersion
1070
     0
1000
AcDbSavedByObjectVersion
1070
     0
1000
AcDbSavedByObjectVersion
1070
     0
1000
AcDbSavedByObjectVersion
1070
     0
1000
AcDbSavedByObjectVersion
1070
     0
1000
AcDbSavedByObjectVersion
1070
     0
1000
AcDbSavedByObjectVersion
1070
     0
1000
AcDbSavedByObjectVersion
1070
     0
1000
AcDbSavedByObjectVersion
1070
     0
1000
AcDbSavedByObjectVersion
1070
     0
1000
AcDbSavedByObjectVersion
1070
     0
1000
AcDbSavedByObjectVersion
1070
     0
1000
AcDbSavedByObjectVersion
1070
     0
1000
AcDbSavedByObjectVersion
1070
     0
  0
VISUALSTYLE
  5
F9
102
{ACAD_REACTORS
330
EF
102
}
330
EF
100
AcDbVisualStyle
  2
Realistic
 70
     8
 71
     2
 72
     2
 73
     1
 90
        0
 40
-0.6
 41
-30.0
 62
     5
 63
     7
 74
     1
 91
        0
 64
     7
 65
   257
 75
     1
175
     1
 42
1.0
 92
        8
 66
     8
 43
1.0
 76
     1
 77
     6
 78
     2
 67
     7
 79
     5
170
     0
171
     0
290
     0
174
     0
 93
       13
 44
0.0
173
     0
291
     0
 45
0.0
1001
ACAD
1000
AcDbSavedByObjectVersion
1070
     0
1000
AcDbSavedByObjectVersion
1070
     0
1000
AcDbSavedByObjectVersion
1070
     0
1000
AcDbSavedByObjectVersion
1070
     0
1000
AcDbSavedByObjectVersion
1070
     0
1000
AcDbSavedByObjectVersion
1070
     0
1000
AcDbSavedByObjectVersion
1070
     0
1000
AcDbSavedByObjectVersion
1070
     0
1000
AcDbSavedByObjectVersion
1070
     0
1000
AcDbSavedByObjectVersion
1070
     0
1000
AcDbSavedByObjectVersion
1070
     0
1000
AcDbSavedByObjectVersion
1070
     0
1000
AcDbSavedByObjectVersion
1070
     0
1000
AcDbSavedByObjectVersion
1070
     0
1000
AcDbSavedByObjectVersion
1070
     0
1000
AcDbSavedByObjectVersion
1070
     0
1000
AcDbSavedByObjectVersion
1070
     0
1000
AcDbSavedByObjectVersion
1070
     0
1000
AcDbSavedByObjectVersion
1070
     0
1000
AcDbSavedByObjectVersion
1070
     0
1000
AcDbSavedByObjectVersion
1070
     0
1000
AcDbSavedByObjectVersion
1070
     0
1000
AcDbSavedByObjectVersion
1070
     0
1000
AcDbSavedByObjectVersion
1070
     0
1000
AcDbSavedByObjectVersion
1070
     0
1000
AcDbSavedByObjectVersion
1070
     0
1000
AcDbSavedByObjectVersion
1070
     0
  0
VISUALSTYLE
  5
FC
102
{ACAD_REACTORS
330
EF
102
}
330
EF
100
AcDbVisualStyle
  2
Thicken
 70
    13
 71
     2
 72
     2
 73
     1
 90
        0
 40
-0.6
 41
-30.0
 62
     5
 63
     7
 74
     1
 91
        4
 64
     7
 65
   257
 75
     1
175
     1
 42
1.0
 92
       12
 66
     7
 43
1.0
 76
     1
 77
     6
 78
     2
 67
     7
 79
     5
170
     0
171
     0
290
     0
174
     0
 93
        1
 44
0.0
173
     0
291
     1
 45
0.0
1001
ACAD
1000
AcDbSavedByObjectVersion
1070
     0
1000
AcDbSavedByObjectVersion
1070
     0
1000
AcDbSavedByObjectVersion
1070
     0
1000
AcDbSavedByObjectVersion
1070
     0
1000
AcDbSavedByObjectVersion
1070
     0
1000
AcDbSavedByObjectVersion
1070
     0
1000
AcDbSavedByObjectVersion
1070
     0
1000
AcDbSavedByObjectVersion
1070
     0
1000
AcDbSavedByObjectVersion
1070
     0
1000
AcDbSavedByObjectVersion
1070
     0
1000
AcDbSavedByObjectVersion
1070
     0
1000
AcDbSavedByObjectVersion
1070
     0
1000
AcDbSavedByObjectVersion
1070
     0
1000
AcDbSavedByObjectVersion
1070
     0
1000
AcDbSavedByObjectVersion
1070
     0
1000
AcDbSavedByObjectVersion
1070
     0
1000
AcDbSavedByObjectVersion
1070
     0
1000
AcDbSavedByObjectVersion
1070
     0
1000
AcDbSavedByObjectVersion
1070
     0
1000
AcDbSavedByObjectVersion
1070
     0
1000
AcDbSavedByObjectVersion
1070
     0
1000
AcDbSavedByObjectVersion
1070
     0
1000
AcDbSavedByObjectVersion
1070
     0
1000
AcDbSavedByObjectVersion
1070
     0
1000
AcDbSavedByObjectVersion
1070
     0
1000
AcDbSavedByObjectVersion
1070
     0
1000
AcDbSavedByObjectVersion
1070
     0
  0
DICTIONARYVAR
  5
84
102
{ACAD_REACTORS
330
5E
102
}
330
5E
100
DictionaryVariables
280
     0
  1
STANDARD
  0
DICTIONARYVAR
  5
5F
102
{ACAD_REACTORS
330
5E
102
}
330
5E
100
DictionaryVariables
280
     0
  1
2
  0
DICTIONARYVAR
  5
63
102
{ACAD_REACTORS
330
5E
102
}
330
5E
100
DictionaryVariables
280
     0
  1
1
  0
DICTIONARYVAR
  5
70A
102
{ACAD_REACTORS
330
5E
102
}
330
5E
100
DictionaryVariables
280
     0
  1
0
  0
DICTIONARYVAR
  5
F95A
102
{ACAD_REACTORS
330
5E
102
}
330
5E
100
DictionaryVariables
280
     0
  1
80.000000
  0
DICTIONARYVAR
  5
F959
102
{ACAD_REACTORS
330
5E
102
}
330
5E
100
DictionaryVariables
280
     0
  1
5.000000
  0
DICTIONARYVAR
  5
709
102
{ACAD_REACTORS
330
5E
102
}
330
5E
100
DictionaryVariables
280
     0
  1
127
  0
DICTIONARY
  5
1785
330
D3
100
AcDbDictionary
280
     1
281
     1
  3
ADSK_XREC_LAYOUTTHUMBNAIL
360
1786
  0
DICTIONARY
  5
718
330
ED
100
AcDbDictionary
280
     1
281
     1
  3
ACAD_XREC_ROUNDTRIP
360
719
  0
DICTIONARY
  5
716
330
EC
100
AcDbDictionary
280
     1
281
     1
  3
ACAD_XREC_ROUNDTRIP
360
717
  0
DICTIONARY
  5
71A
330
EE
100
AcDbDictionary
280
     1
281
     1
  3
ACAD_XREC_ROUNDTRIP
360
71B
  0
DICTIONARY
  5
F95B
330
7F
100
AcDbDictionary
280
     1
281
     1
  3
ACAD_XREC_ROUNDTRIP
360
F95C
  0
XRECORD
  5
1786
102
{ACAD_REACTORS
330
1785
102
}
330
1785
100
AcDbXrecord
280
     1
310
28000000630000008C0000000100080000000000B036000000000000000000000001000000000000FFFFFF0000000000FFFFFF000000000000000000000000000000000000000000000000000000000000000000330000006600000099000000CC000000FF00000000330000333300006633000099330000CC330000FF3300
310
0000660000336600006666000099660000CC660000FF66000000990000339900006699000099990000CC990000FF99000000CC000033CC000066CC000099CC0000CCCC0000FFCC000000FF000033FF000066FF000099FF0000CCFF0000FFFF000000003300330033006600330099003300CC003300FF003300003333003333
310
33006633330099333300CC333300FF33330000663300336633006666330099663300CC663300FF66330000993300339933006699330099993300CC993300FF99330000CC330033CC330066CC330099CC3300CCCC3300FFCC330000FF330033FF330066FF330099FF3300CCFF3300FFFF330000006600330066006600660099
310
006600CC006600FF00660000336600333366006633660099336600CC336600FF33660000666600336666006666660099666600CC666600FF66660000996600339966006699660099996600CC996600FF99660000CC660033CC660066CC660099CC6600CCCC6600FFCC660000FF660033FF660066FF660099FF6600CCFF6600
310
FFFF660000009900330099006600990099009900CC009900FF00990000339900333399006633990099339900CC339900FF33990000669900336699006666990099669900CC669900FF66990000999900339999006699990099999900CC999900FF99990000CC990033CC990066CC990099CC9900CCCC9900FFCC990000FF99
310
0033FF990066FF990099FF9900CCFF9900FFFF99000000CC003300CC006600CC009900CC00CC00CC00FF00CC000033CC003333CC006633CC009933CC00CC33CC00FF33CC000066CC003366CC006666CC009966CC00CC66CC00FF66CC000099CC003399CC006699CC009999CC00CC99CC00FF99CC0000CCCC0033CCCC0066CC
310
CC0099CCCC00CCCCCC00FFCCCC0000FFCC0033FFCC0066FFCC0099FFCC00CCFFCC00FFFFCC000000FF003300FF006600FF009900FF00CC00FF00FF00FF000033FF003333FF006633FF009933FF00CC33FF00FF33FF000066FF003366FF006666FF009966FF00CC66FF00FF66FF000099FF003399FF006699FF009999FF00CC
310
99FF00FF99FF0000CCFF0033CCFF0066CCFF0099CCFF00CCCCFF00FFCCFF0000FFFF0033FFFF0066FFFF0099FFFF00CCFFFF00FFFFFF00000000000D0D0D001A1A1A00282828003535350043434300505050005D5D5D006B6B6B00787878008686860093939300A1A1A100AEAEAE00BBBBBB00C9C9C900D6D6D600E4E4E400
310
F1F1F100FFFFFF0000000000000000000000000000000000000000000000000000000000000000000000000000000000E2E2E2E2E2E2E2E2E2E2E2E2E2E2E2E2E2E2E2E2E2E2E2E2E2E2E2E2E2E2E2E2E2E2E2E2E2E2E2E2E2E2E2E2E2E2E2E2E2E2E2E2E2E2E2E2E2E2E2E2E2E2E2E2E2E2E2E2E2E2E2E2E2E2E2E2E2E2E2
310
E2E2E2E2E2E2E2E2E2E2E2E2E2E2E2E2E2E2E2E2FFE2E2E2E2E2E2E2E2E2E2E2E2E2E2E2E2E2E2E2E2E2E2E2E2E2E2E2E2E2E2E2E2E2E2E2E2E2E2E2E2E2E2E2E2E2E2E2E2E2E2E2E2E2E2E2E2E2E2E2E2E2E2E2E2E2E2E2E2E2E2E2E2E2E2E2E2E2E2E2E2E2E2E2E2E2E2E2E2E2E2E2E2E2E2E2E2E2E2E200E2F5E2E2E2E2
310
E2E2E2E2F5F5F5F5F5F5F5F5E2E2E2E2E2E2E2E2E2E2E2E2E2E2E2E2F5F5F5F5F5F5F5F5E2E2E2E2E2E2E2E2E2E2E2E2E2E2E2F5F5F5F5F5F5F5F5E2E2E2E2E2E2E2E2E2E2E2E2E2E2E2E2F5F5F5F5F5F5F5F5E2E2E2E2E2E2E2E2F5E2FFE2F5E2E2E2E2E2E2E2E2E2E2E2E2E2E2E2E2E2E2E2E2E2E2E2E2E2E2E2E2E2E2E2
310
E2E2E2E2E2E2E2E2E2E2E2E2E2E2E2E2E2E2E2E2E2E2E2E2E2E2E2E2E2E2E2E2E2E2E2E2E2E2E2E2E2E2E2E2E2E2E2E2E2E2E2E2E2E2E2E2E2E2E2E2E2E2E2E2F5E200E2F5E2E2E2E2E2E2E2E2E2E2E2E2E2E2E2E2E2E2E2E2E2E2E2E2E2E2E2E2E2E2E2E2E2E2E2E2E2E2E2E2E2E2E2E2E2F5F5F5F5F5F5F5F5F5F5F5F5F5
310
F5F5F5F5F5F5F5F5F5F5F5F5F5F5E2E2E2E2E2E2E2E2E2E2E2E2E2E2E2E2E2E2E2E2E2F5E2F5E2FFE2F5E2E2E2E2E2E2E2E2E2E2E2E2E2E2E2E2E2E2E2E2E2E2E2E2E2E2E2E2E2E2E2E2E2E2E2E2E2E2E2E2E2E2E2E2E2F5F5F55E5E5E5E5E5E5E5EF5F5F5F5F5F5F5F5F5F5F5F5F5F5F5F5E2E2E2E2E2E2E2E2E2E2E2E2E2
310
E2E2E2E2E2E2E2E2F5E2F5E200E2F5E2E2F5F5F5F5F5F5F5F5F5F5F5F5F5F5F5F5F5F5F5F5F5F5F5F5F5F5F5F5F5F5F5F5F5F5F5F5F5F5F5F5F5F5F5F5F55E5EF55EF5F55E5E5EF5F5F5F5F5F5F5F5F5F5F5F5F5F5F5F5E2E2E2E2E2E2E2E2E2E2E2E2E2E2E2E2E2E2E2E2E2F5E2F5E2FFE2F5E2E2F5F5F5F5F5F5F5F5F5F5
310
F5F5F5F5F5F5F5F5F5F5F5F5F5F5F5F5F5F5F5F5F5F5F5F5F5F5F5F5F5F5F5F5F5F55E5E5E5EF5F55E5EF55EF5F5F5F5F5F5F5F5F5F5F5F5F5F5F5F5E2E2E2E2E2E2E2E2E2E2E2E2E2E2E2E2E2E2E2E2E2F5E2F5E200E2F5E2E2F5F5F5F5F5F5F5F5F5F5F5F5F5F5F5F5F5F5F5F5F5F5F5F5F5F5F5F5F5F5F5F5F5F5F5F5F5
310
F5F5F5F5F5F5F55E5E5EF5F55E5EF5F55EF5F5F5F5F5F5F5F5F5F5F5F5F5F5F5F5F5F5F5F5F5F5F5F5F5F5F5F5F5F5F5F5F5F5F5F5F5F5E2F5E2FFE2F5E2E2F5F5F5F5F5F5F5F5F5F5F5F5F5F5F5F5F5F5F5F5F5F5F5F5F5F5F5F5F5F5F5F5F5F5F5F5F5F5F5F5F5F5F5F55E5E5E5E5E5EF5F55E5EF5F5F5F5F5F5F5F5F5F5
310
F5F5F5F5F5F5F5F5F5F5F5F5F5F5F5F5F5F5F5F5F5F5F5F5F5F5F5F5E2F5E200E2F5E2E2F5F5F5F5F5F5F5F5F5F5F5F5F5F5F5F5F5F5F5F5F5F5F5F5F5F5F5F5F5F5F5F5F5F5F5F5F5F5F5F5F5F5F5F5F5F5F55E5EF5F55E5E5EF5F5F5F5F5F5F5F5F5F5F5F5F5F5F5F5F5F5F5F5F5F5F5F5F5F5F5F5F5F5F5F5F5F5F5F5F5
310
F5E2F5E2CDE2F5F5E2F5F5F5F5F5F5F5F5F5F5F5F5F5F5F5F5F5F5F5F5F5F5F5F5F5F5F5F5F5F5F5F5F5F5F5F5F5F5F5F5F5F5F5F5F5F5F55EF55E5E5EF55EF5F5F5F5F5F5F5F5F5F5F5F5F5F5F5F5F5E2E2E2E2E2E2E2E2E2E2E2E2E2F5F5F5F5F5F5F5F5E2F5E200E2F5F5E2F5F5F5F5F5F5F5F5F5F5F5F5F5F5F5F5F5F5
310
F5F5F5F5F5F5F5F5F5F5F5F5F5F5F5F5F5F5F5F5F5F5F5F5F5F5F5F55EF55EF55EF5F55EF5F5F5F5F5F5F5F5F5F5F5F5F5F5F5F5F5E25E5E5E5E5E5E5E5E5E5E5E5EF5F5F5F5F5F5F5F5E2F5E2CDE2F5F5E2F5F5F5F5F5F5F5F5F5F5F5F5F5F5F5F5F5F5F5F5F5F5F5F5F5F5F5F5F5F5F5F5F5F5F5F5F5F5F5F5F5F5F5F5F5
310
F55E5EF55EF5F55E5EF5F5F5F5F5F5F5F5F5F5F5F5F5F5F5F5F5E25EF55EF55EF5F55E5EF55E5EF5F5F5F5F5F5F5F5E2F5E200E2F5F5E2F5F5F5F5F5F5F5F5F5F5F5F5F5F5F5F5F5F5F5F5F5F5F5F5F5F5F5F5F5F5F5F5F5F5F5F5F5F5F5F5F5F5F5F5F5F55EF55EF5F55E5E5EF5F5F5F5F5F5F5F5F5F5F5F5F5F5F5F5F5E2
310
F55EF55EF5F55E5EF55EF55EF5F5F5F5F5F5F5F5E2F5E2CDE2F5F5E2F5F5F5F5F5F5F5F5F5F5F5F5F5F5F5F5F5F5F5F5F5F5F5F5F5F5F5F5F5F5F5F5F5F5F5F5F5F5F5F5F5F5F5F5F5F55E5EF5F55E5EF55EF5F5F5F5F5F5F5F5F5F5F5F5F5F5F5F5F5E25E5E5EF5F55E5EF55EF55E5EF5F5F5F5F5F5F5F5E2F5E200E2F5F5
310
E2F5F5F5F5F5F5F5F5F5F5F5F5F5F5F5F5F5F5F5F5F5F5F5F5F5F5F5F5F5F5F5F5F5F5F5F5F5F5F5F5F5F5F5F5F5F55EF5F55E5EF5F55EF5F5F5F5F5F5F5F5F5F5F5F5F5F5F5F5F5E25EF5F55E5E5EF55EF55EF55EF5F5F5F5F5F5F5F5E2F5E2CDE2F5F5E2F5F5F5F5F5F5F5F5F5F5F5F5F5F5F5F5F5F5F5F5F5F5F5F5F5F5
310
F5F5F5F5F5F5F5F5F5F5F5F5F5F5F5F5F5F5F5F55EF55E5EF5F55E5EF5F5F5F5F5F5F5F5F5F5F5F5F5F5F5F5F5E2F5F55E5E5EF55EF55EF5F55EF5F5F5F5F5F5F5F5E2F5E200E2F5F5E2F5F5F5F5F5F5F5F5F5F5F5F5F5F5F5F5F5F5F5F5F5F5F5F5F5F5F5F5F5F5F5F5F5F5F5F5F5F5F5F5F5F5F5F5F55E5E5E5EF5F55E5E
310
5EF5F5F5F5F5F5F5F5F5F5F5F5F5F5F5F5F5E2F55E5EF5F55EF55EF5F55E5EF5F5F5F5F5F5F5F5E2F5E2CDE2F5F5E2F5F5F5F5F5F5F5F5F5F5E2E2E2E2E2E2E2E2E2E2E2E2F5F5F5F5F5F5F5F5F5F5F5F5F5F5F5F5F5F5F5F5F5F5F55E5E5EF5F55E5EF55EF5F5F5F5F5F5F5F5F5F5F5F5F5F5F5F5F5E25E5EF5F55EF55EF5
310
F55E5E5EF5F5F5F5F5F5F5F5E2F5E200E2F5F5E2F5F5F5F5F5F5F5F5F5E2E25EE2E25E5E5E5E5E5E5EE2F5F5F5F5F5F5F5F5F5F5F5F5F5F5F5F5F5F5F5F5F5F55E5E5EF5F55E5EF5F55EF5F5F5F5F5F5F5F5F5F5F5F5F5F5F5F5F5E25EF5F55EF55EF5F55E5EF55EF5F5F5F5F5F5F5F5E2F5E2CDE2F5E2E2F5F5F5F5F5F5F5
310
F5F5E25E5E5EE25E5E5EF55E5EF55EF5F5F5F5F5F5F5F5F5F5F5F5F5F5F5F5F5F5F5F5F5F55E5E5EF55EF55EF55E5EF5F5F5F5F5F5F5F5F5F5F5F5F5F5F5F5F5E2F5F55EF55EF55E5E5EF5F55EF5F5F5F5F5F5F5F5E2F5E200E2F5E2E2F5F5F5F5F5F5F5F5F5E25E5E5E5E5E5E5E5EF55E5E5EF5F5F5F5F5F5F5F5F5F5F5F5
310
F5F5F5F5F5F5F5F5F5F5F5F55E5EF55EF55EF55EF5F5F5F5F5F5F5F5F5F5F5F5F5F5F5F5F5E2F55EF55EF55EF55EF5F55E5EF5F5F5F5F5F5F5F5E2F5E2CDE2F5E2E2F5F5F5F5F5F5F5F5F5E25EF55EF55E5EF55E5EF55E5EF5F5F5F5F5F5F5F5F5F5F5F5F5F5F5F5F5F5F5F5F5F5F55E5EF55EF55EF55E5EF5F5F5F5F5F5F5
310
F5F5F5F5F5F5F5F5F5F5E25EF55EF55EF55EF5F55E5E5EF5F5F5F5F5F5F5F5E2F5E200E2F5E2E2F5F5F5F5F5F5F5F5F5E25EF55E5EF5BE5EF55E5EF55EF5F5F5F5F5F5F5F5F5F5F5F5F5F5F5F5F5F5F5F5F5F55E5EF55EBE5EF55EF55EF5F5F5F5F5F5F5F5F5F5F5F5F5F5F5F5F5E2F55EF55EBE5EF5F55E5EF55EF5F5F5F5
310
F5F5F5F5E2F5E2CDE2F5E2E2F5F5F5F5F5F5F5F5F5E25E5EF55EBEBEBEBE5E5E5E5EF5F5F5F5F5F5F5F5F5F5F5F5F5F5F5F5F5F5F5F5F55E5EF5BEBEBEBEBEF55E5EF5F5F5F5F5F5F5F5F5F5F5F5F5F5F5F5F5E25EF55EBEBEBEBE5E5EF5F55EF5F5F5F5F5F5F5F5E2F5E200E2F5E2E2F5F5F5F5F5F5F5F5F5E25E5E5EF5BE
310
BEBEBE5E5E5E5EF5F5F5F5F5F5F5F5F5F5F5F5F5F5F5F5F5F5F5F5F55EF55EBEBEBEBEBE5EF55EF5F5F5F5F5F5F5F5F5F5F5F5F5F5F5F5F5E2F55EF5BEBEBEBE5EF5F55E5EF5F5F5F5F5F5F5F5E2F5E2CDE2F5E2E2F5F5F5F5F5F5F5F5F5E25EF55E5EF5F55E5EF55E5E5EF5F5F5F5F5F5F5F5F5F5F5F5F5F5F5F5F5F5F5F5
310
F55E5EF55E5EF5F55EF55E5EF5F5F5F5F5F5F5F5F5F5F5F5F5F5F5F5F5E25EF55EF55EF55EF5F55E5E5EF5F5F5F5F5F5F5F5E2F5E200E2F5E2E2F5F5F5F5F5F5F5F5F5E2E25E5E5E5EF5F55E5EF55E5EF5F5F5F5F5F5F5F5F5F5F5F5F5F5F5F5F5F5F5F5F55EF55E5EF5F55EF55EF55EF5F5F5F5F5F5F5F5F5F5F5F5F5F5F5
310
F5F5E2F55EF55EF55EF5F55E5EF55EF5F5F5F5F5F5F5F5E2F5E2CDE2F5E2E2F5F5F5F5F5F5F5F5F5F5E2E2E2E25E5EF5F55EF55E5EF5F5F5F5F5F5F5F5F5F5F5F5F5F5F5F5F5F5F5F5F55EF55E5EF55EF55EF55E5EF5F5F5F5F5F5F5F5F5F5F5F5F5F5F5F5F5E25EF55EF55EF5F55E5EF5F55EF5F5F5F5F5F5F5F5E2F5E200
310
E2F5E2E2F5F5F5F5F5F5F5F5F5F5F5F5F5F5E2E2E2E25E5EF55EF5F5F5F5F5F5F5F5F5F5F5F5F5F5F5F5F5F5F5F5F55E5E5EF5F55E5EF55EF55EF5F5F5F5F5F5F5F5F5F5F5F5F5F5F5F5F5E2F55EF55EF5F55E5EF5F55E5EF5F5F5F5F5F5F5F5E2F5E200E2F5E2E2F5F5F5F5F5F5F5F5F5F5F5F5F5F5F5F5F5F5E2E2E25EF5
310
F5F5F5F5F5F5F5F5F5F5F5F5F5F5F5F5F5F5F5F55E5EF5F55E5EF55EF55E5EF5F5F5F5F5F5F5F5F5F5F5F5F5F5F5F5F5E25EF55EF5F55E5EF5F55EF55EF5F5F5F5F5F5F5F5E2F5E200E2F5E2E2F5F5F5F5F5F5F5F5F5F5F5F5F5F5F5F5F5F5F5F5F5E2F5F5F5F5F5F5F5F5F5F5F5F5F5F5F5F5F5F5F5F5F55EF5F55E5EF55E
310
F55EF55EF5F5F5F5F5F5F5F5F5F5F5F5F5F5F5F5F5E2F55EF5F55E5EF5F55EF55E5EF5F5F5F5F5F5F5F5E2F5E2CDE2F5E2E2F5F5F5F5F5F5F5F5F5F5F5F5F5F5F5F5F5F5F5F5F5F5F5F5F5F5F5F5F5F5F5F5F5F5F5F5F5F5F5F5F5F55E5EF55E5EF55EF55EF5F55EF5F5F5F5F5F5F5F5F5F5F5F5F5F5F5F5F5E25EF5F55E5E
310
F5F55EF55EF55EF5F5F5F5F5F5F5F5E2F5E200E2F5E2E2F5E2E2E2E2E2E2E2E2E2E2E2E2E2E2E2E2E2E2E2E2E2E2E2E2F5F5F5F5F5F5F5F5F5F5F5F5F5F5F5F5F55EF55E5EF55EF55EF5F55E5EF5F5F5F5F5F5F5F5F5F5F5F5F5F5F5F5F5E2F5F55E5EF5F55EF55EF55E5EF5F5F5F5F5F5F5F5E2F5E2CDE2F5E2E2F5E2E2E2
310
E2E2E2E2E2E2E2E2E2E2E2E2E2E2E2E2E2E2E2E2E2F5F5F5F5F5F5F5F5F5F5F5F5F5F5F5F5F55E5E5EF5F55E5EF5F55E5E5EF5F5F5F5F5F5F5F5F5F5F5F5F5F5F5F5F5E2F55E5EF5F55E5E5EF55EF55EF5F5F5F5F5F5F5F5E2F5E200E2F5E2E2F5F5F5F5F5F5F5F5F5F5F5F5F5F5F5F5F5F5F5F5F5F5F5F5F5F5F5F5F5F5F5
310
F5F5F5F5F5F5F5F5F5F5F55E5EF5F55E5EF5F55E5EF55EF5F5F5F5F5F5F5F5F5F5F5F5F5F5F5F5F5E2E25EF5F55E5EF5F55EF55E5EF5F5F5F5F5F5F5F5E2F5E2CDE2F5E2E2F5E2E2E2E2E2E2E2E2E2E2E2E2E2E2E2E2E2E2E2E2E2E2E2E2F5F5F5F5F5F5F5F5F5F5F5F5F5F5F5F5F55EF5F55E5EF5F55E5EF5F55EF5F5F5F5
310
F5F5F5F5F5F5F5F5F5F5F5F5F5F5E2E25E5E5EF5F55E5E5EF55EF5F5F5F5F5F5F5F5E2F5E200E2F5F5E2F5E2E2E2E2E2E2E2E2E2E2E2E2E2E2E2E2E2E2E2E2E2E2E2E2F5F5F5F5F5F5F5F5F5F5F5F5F5F5F5F55EF5F55E5EF5F55EF55EF55E5EF5F5F5F5F5F5F5F5F5F5F5F5F5F5F5F5F5F5F5E25E5EF5F55E5EF5F55E5EF5
310
F5F5F5F5F5F5F5E2F5E2CDE2F5F5E2F5E2E2E2E2E2E2E2E2E2E2E2E2E2E2E2E2E2E2E2E2E2E2E2E2F5F5F5F5F5F5F5F5F5F5F5F5F5F5F55E5EF55E5EF5F55EF55EF55E5E5EF5F5F5F5F5F5F5F5F5F5F5F5F5F5F5F5F5F5F5F5E2E25E5E5E5E5E5E5E5EF5F5F5F5F5F5F5F5E2F5E200E2F5F5E2F5F5F5F5F5F5F5F5F5F5F5F5
310
F5F5F5F5F5F5F5F5F5F5F5F5F5F5F5F5F5F5F5F5F5F5F5F5F5F5F5F55EF55E5EF5F55EF55EF55EF55E5EF5F5F5F5F5F5F5F5F5F5F5F5F5F5F5F5F5F5F5F5F5F5E2E2E2E2E2E2E2E2F5F5F5F5F5F5F5F5E2F5E2CDE2F5F5E2F5F5F5F5F5F5F5F5F5F5F5F5F5F5F5F5F5F5F5F5F5F5F5F5F5F5F5F5F5F5F5F5F5F5F5F5F5F5F5
310
F55E5E5EF5F55EF55EF55EF55EF55EF5F5F5F5F5F5F5F5F5F5F5F5F5F5F5F5F5F5F5F5F5F5F5F5F5F5F5F5F5F5F5F5F5F5F5F5F5F5E2F5E200E2F5F5E2F5F5F5F5F5F5F5F5F5F5F5F5F5F5F5F5F5F5F5F5F5F5F5F5F5F5F5F5F5F5F5F5F5F5F5F5F5F5F5F55E5E5E5E5E5E5E5E5E5E5E5E5E5EF5F5F5F5F5F5F5F5F5F5F5F5
310
F5F5F5F5F5F5F5F5F5F5F5F5F5F5F5F5F5F5F5F5F5F5F5F5F5F5E2F5E2CDE2F5F5E2F5F5F5F5F5F5F5F5F5F5F5F5F5F5F5F5F5F5F5F5F5F5F5F5F5F5F5F5F5F5F5F5F5E2E2E2E2E2E2E2E2E2E2E2E2E2E2E2E2E2E2E2E2E2E2E2E2E2E2E2F5F5F5F5F5F5F5F5E2E2E2E2E2E2E2E2E2E2E2E2E2E2E2E2F5F5F5F5F5F5F5F5E2
310
F5E200E2F5F5E2F5F5F5F5F5F5F5F5F5F5F5F5F5F5F5F5F5F5F5F5F5F5F5F5F5F5F5F5F5F5F5F5F5E2E2E2E2E2E2E2E2E2E2E2E2E2E2E2E2E2E2E2E2E2E2E2E2E2E2E2F5F5F5F5F5F5F5F5E2E2E2E2E2E2E2E2E2E2E2E2E2E2E2E2F5F5F5F5F5F5F5F5E2F5E2CDE2F5F5E2F5F5F5F5F5F5F5F5F5E2E2E2E2E2E2E2E2E2E2E2
310
E2E2F5F5F5F5F5F5F5F5F5F5F5E2E2E2E2E2E2E2E2E2E2E2E2E2E2E2E2E2E2E2E2E2E2E2E2E2E2E2F5F5F5F5F5F5F5F5E2E2E2E2E2E2E2E2E2E2E2E2E2E2E2E2F5F5F5F5F5F5F5F5E2F5E200E2F5F5E2F5F5F5F5F5F5F5F5F5E25E5EF55E5EF55E5EF55E5E5EF5F5F5F5F5F5F5F5F5F5F5F5F5F5F5F5F5F5F5F5F5F5F5F5F5
310
F5F5F5F5F5F5F5F5F5F5F5F5F5F5F5F5F5F5F5F5F5F5F5F5F5F5F5F5F5F5F5F5F5F5F5F5F5F5F5F5F5F5F5F5F5E2F5E2CDE2F5F5E2F5F5F5F5F5F5F5F5F5E25E5E5E5EF55E5EF55E5EF55EF5F5F5F5F5F5F5F5F5F5F5F5F5F5F5F5F5F5F5F5F5F5F5F5F5F5F5F5F5F5F5F5F5F5F5F5F5F5F5F5F5F5F5F5F5F5F5F5F5F5F5F5
310
F5F5F5F5F5F5F5F5F5F5F5F5F5F5F5F5F5F5E2F5E200E2F5E2E2F5F5F5F5F5F5F5F5F5E25EF55E5E5E5EF55E5EF55E5EF5F5F5F5F5F5F5F5F5F5F5F5F5F5F5F5F5F5F5F5F5F5F5F5F5F5F5F5F5F5F5F5F5F5F5F5F5F5F5F5F5F5F5F5F5F5F5F5F5F5F5F5F5F5F5F5F5F5F5F5F5F5F5F5F5F5F5F5F5F5E2F5E2CDE2F5E2E2F5
310
F5F5F5F5F5F5F5F5E25E5E5E5EF55E5E5EF55E5E5EF5F5F5F5F5F5F5F5F5F5F5F5F5F5F5F5F5F5F5F5F5F5F5F5F5F5F5F5F5F5F5F5F5F5F5F5F5F5F5F5F5F5F5F5F5F5F5F5F5F5F5F5F5F5F5F5F5F5F5F5F5F5F5F5F5F5F5F5F5F5E2F5E200E2F5E2E2F5F5F5F5F5F5F5F5F5E25E5E5EF55EF55EF55E5EF55EF5F5F5F5F5F5
310
F5F5F5F5F5F5F5F5F5F5F5F5F5F5F5F5F5F5F5F5F5F5F5F5F5F5F5F5F5F5F5F5F5F5F5F5F5F5F5F5F5F5F5F5F5F5F5F5F5F5F5F5F5F5F5F5F5F5F5F5F5F5F5F5E2F5E2CDE2F5E2E2F5F5F5F5F5F5F5F5F5E25E5EF55EF55EF55E5EF55E5EF5F5F5F5F5F5F5F5F5F5F5F5F5F5F5F5F5F5F5F5E2E2E2E2E2F5F5F5F5F5F5F5F5
310
F5F5F5F5F5F5F5F5F5F5F5F5F5F5F5F5F5F5F5F5F5F5F5F5F5F5F5F5F5F5F5F5F5F5F5F5F5E2F5E204E2F5E2E2F5F5F5F5F5F5F5F5F5E2E2F55EF55EF5F55EF55EF55EF5F5F5F5F5F5F5F5F5F5F5F5F5F5F5F5F5F5F5E2E25E5E5EE2E2F5F5F5F5F5F5F5F5F5F5F5F5F5F5F5F5F5F5F5F5F5F5F5F5F5F5F5F5F5F5F5F5F5F5
310
F5F5F5F5F5F5F5F5F5F5E2F5E2CDE2F5E2E2F5F5F5F5F5F5F5F5F5F5E2E2F55EF5F55E5EF55E5E5EF5F5F5F5F5F5F5F5F5F5F5F5F5F5F5F5F5F5F5E25E5E5EF55EE2F5F5F5F5F5F5F5F5F5F5F5F5F5F5F5F5F5F5F5F5F5F5F5F5F5F5F5F5F5F5F5F5F5F5F5F5F5F5F5F5F5F5F5F5E2F5E200E2F5E2E2F5F5F5F5F5F5F5F5F5
310
F5F5E25EF5F55E5EF55E5EF55EF5F5F5F5F5F5F5F5F5F5F5F5F5F5F5F5F5F5F5E25EF55E5E5EE2F5F5F5F5F5F5F5F5F5F5F5F5F5F5F5F5F5F5F5F5F5F5F5F5F5F5F5F5F5F5F5F5F5F5F5F5F5F5F5F5F5F5F5F5E2F5E2CDE2F5E2E2F5F5F5F5F5F5F5F5F5F5F5F5E2F55E5EF55E5EF55E5EF5F5F5F5F5F5F5F5F5F5F5F5F5F5
310
F5F5F5F5F5E25E5EF55E5EE2F5F5F5F5F5F5F5F5F5F5F5F5F5F5F5F5F5F5F5F5F5F5F5F5F5F5F5F5F5F5F5F5F5F5F5F5F5F5F5F5F5F5F5F5E2F5E200E2F5E2E2F5F5F5F5F5F5F5F5F5F5F5F5E25E5EBEBEBEBE5E5E5EF5F5F5F5F5F5F5F5F5F5F5F5F5F5F5F5F5F5F5E25E5E5EF55EE2F5F5F5F5F5F5F5F5F5F5F5F5F5F5F5
310
F5F5F5F5F5F5F5F5F5F5F5F5F5F5F5F5F5F5F5F5F5F5F5F5F5F5F5F5F5E2F5E2CDE2F5E2E2F5F5F5F5F5F5F5F5F5F5F5F5E25E5EBEBEBEBE5EF55EF5F5F5F5F5F5F5F5F5F5F5F5F5F5F5F5F5F5F5E25EF55E5E5EE2F5F5F5F5F5F5F5F5F5F5F5F5F5F5F5F5F5F5F5F5F5F5F5F5F5F5F5F5F5F5F5F5F5F5F5F5F5F5F5F5F5F5
310
F5F5E2F5E200E2F5E2E2F5F5F5F5F5F5F5F5F5F5F5F5E2F55E5EF5BE5EF55E5EF5F5F5F5F5F5F5F5F5F5F5F5F5F5F5F5F5F5F5E25EBEF55E5EE2F5F5F5F5F5F5F5F5F5F5F5F5F5F5F5F5F5F5F5F5F5F5F5F5F5F5F5F5E2E2E2F5F5E2E2E2F5F5F5F5F5F5F5F5E2F5E2CDE2F5E2E2F5F5F5F5F5F5F5F5F5F5F5F5E25E5EF55E
310
5EF55E5E5EF5F5F5F5F5F5F5F5F5F5F5F5F5F5F5F5F5F5F5E2BEBEBEBEBEE2F5F5F5F5F5F5F5F5F5F5F5F5F5F5F5F5F5F5F5F5F5F5F5F5F5F5F5E25E5EE2F5F5E25E5EF5F5F5F5F5F5F5F5E2F5E200E2F5E2E2F5F5F5F5F5F5F5F5F5F5F5F5E25EF55E5EF55E5EF55EF5F5F5F5F5F5F5F5F5F5F5F5F5F5F5F5F5F5F5E2BEBE
310
BEBEBEE2F5F5F5F5F5F5F5F5F5F5F5F5F5F5F5F5F5F5F5F5F5F5F5F5F5F5F5E25EF5E2E2E25E5E5EF5F5F5F5F5F5F5F5E2F5E2CDE2F5E2E2F5F5F5F5F5F5F5F5F5F5F5F5F5E25E5EF55E5EF55E5EF5F5F5F5F5F5F5F5F5F5F5F5F5F5F5F5F5F5F5E25E5EF55E5EE2F5F5F5F5F5F5F5F5F5F5F5F5F5F5F5F5F5F5F5F5F5F5F5
310
F5F5F5F5E25E5E5E5E5E5E5E5EF5F5F5F5F5F5F5F5E2F5E200E2F5E2E2F5F5F5F5F5F5F5F5F5F5F5F5F5E25EF55E5EF55E5E5EF5F5F5F5F5F5F5F5F5F5F5F5F5F5F5F5F5F5F5F5E25E5EF55EE2F5F5F5F5F5F5F5F5F5F5F5F5F5F5F5F5F5F5F5F5F5F5F5F5F5F5F5E25E5E5E5EF55E5E5EF5F5F5F5F5F5F5F5E2F5E2CDE2F5
310
E2E2F5F5F5F5F5F5F5F5F5F5F5F5F5E2F55E5EF55E5EF55EF5F5F5F5F5F5F5F5F5F5F5F5F5F5F5F5F5F5F5F5F5E2F55E5EE2F5F5F5F5F5F5F5F5F5F5F5F5F5F5F5F5F5F5F5F5F5F5F5F5F5F5F5E25EBEBEBEBEBE5E5EF5F5F5F5F5F5F5F5E2F5E200E2F5E2E2F5F5F5F5F5F5F5F5F5F5F5F5F5E25E5EF55E5EF55E5EF5F5F5
310
F5F5F5F5F5F5F5F5F5F5F5F5F5F5F5F5F5F5E25EF55EE2E2E2E2E2E2E2F5F5F5F5F5F5F5F5F5F5F5F5F5F5F5F5F5F5F5F5F5E25EBEBEBEBEBE5E5EF5F5F5F5F5F5F5F5E2F5E2CDE2F5F5E2F5F5F5F5F5F5F5F5F5F5F5F5F5E25EF55E5EF55E5E5EF5F5F5F5F5F5F5F5F5F5F5F5F5F5F5F5F5F5F5F5F5E25E5E5E5E5E5E5E5E
310
5E5EE2F5F5F5F5F5F5F5F5F5F5F5F5F5F5F5F5F5F5F5F5E25E5E5EF5BE5EF55EF5F5F5F5F5F5F5F5E2F5E200E2F5F5E2F5F5F5F5F5F5F5F5F5F5F5F5F5E25E5E5EF55E5EF55EF5F5F5F5F5F5F5F5F5F5F5F5F5F5F5F5F5F5F5F5F5F5E25E5EF55EF55E5EF55EE2F5F5F5F5F5F5F5F5F5F5F5F5F5F5F5F5F5F5F5F5E25EF55E
310
5EF55E5E5EF5F5F5F5F5F5F5F5E2F5E2CDE2F5F5E2F5F5F5F5F5F5F5F5F5F5F5F5F5E25E5EF55E5EF55E5EF5F5F5F5F5F5F5F5F5F5F5F5F5F5F5F5F5F5F5F5F5F5E25E5E5EF55EF55E5E5EE2F5F5F5F5F5F5F5F5F5F5F5F5F5F5F5F5F5F5F5F5E2E25EF55E5EF55E5EF5F5F5F5F5F5F5F5E2F5E200E2F5F5E2F5F5F5F5F5F5
310
F5F5F5F5F5F5F5E25EF55E5EF55E5E5EF5F5F5F5F5F5F5F5F5F5F5F5F5F5F5F5F5F5F5F5F5F5F5E25E5E5EF55EF55E5EE2F5F5F5F5F5F5F5F5F5F5F5F5F5F5F5F5F5F5F5F5F5E25E5EF55E5EF55EF5F5F5F5F5F5F5F5E2F5E2CDE2F5F5E2F5F5F5F5F5F5F5F5F5F5F5F5F5F5E2E2E25E5EF55E5EF5F5F5F5F5F5F5F5F5F5F5
310
F5F5F5F5F5F5F5F5F5F5F5F5E2E2E25E5EF55EF55EE2F5F5F5F5F5F5F5F5F5F5F5F5F5F5F5F5F5F5F5F5F5E2E2E25E5E5E5E5EF5F5F5F5F5F5F5F5E2F5E200E2F5F5E2F5F5F5F5F5F5F5F5F5F5F5F5F5F5F5F5F5E2E2E2E25EF5F5F5F5F5F5F5F5F5F5F5F5F5F5F5F5F5F5F5F5F5F5F5F5F5F5E2E2E2E2E25EE2F5F5F5F5F5
310
F5F5F5F5F5F5F5F5F5F5F5F5F5F5F5F5F5F5F5E2E2E25E5EF5F5F5F5F5F5F5F5E2F5E2CDE2F5F5E2F5F5F5F5F5F5F5F5F5F5F5F5F5F5F5F5F5F5F5F5F5E2F5F5F5F5F5F5F5F5F5F5F5F5F5F5F5F5F5F5F5F5F5F5F5F5F5F5F5F5F5F5F5E2F5F5F5F5F5F5F5F5F5F5F5F5F5F5F5F5F5F5F5F5F5F5F5F5F5F5F5F5E2E2F5F5F5
310
F5F5F5F5F5E2F5E200E2F5F5E2F5F5F5F5F5F5F5F5F5F5F5F5F5F5F5F5F5F5F5F5F5F5F5F5F5F5F5F5F5F5F5F5F5F5F5F5F5F5F5F5F5F5F5F5F5F5F5F5F5F5F5F5F5F5F5F5F5F5F5F5F5F5F5F5F5F5F5F5F5F5F5F5F5F5F5F5F5F5F5F5F5F5F5F5F5F5F5F5F5F5F5F5E2F5E200E2F5F5E2F5E2E2E2E2E2E2E2E2E2E2E2E2E2
310
E2E2E2E2E2E2E2E2E2E2E2F5F5F5F5F5F5F5F5F5F5F5F5F5F5E2E2E2E2E2E2E2E2E2E2E2E2E2E2E2E2F5F5F5F5F5F5F5F5E2E2E2E2E2E2E2E2E2E2E2E2E2E2E2E2E2E2E2E2E2E2E2E2E2F5F5F5F5E2F5E200E2F5F5E2F5E2E2E2E2E2E2E2E2E2E2E2E2E2E2E2E2E2E2E2E2E2E2E2E2F5F5F5F5F5F5F5F5F5F5F5F5F5F5E2E2
310
E2E2E2E2E2E2E2E2E2E2E2E2E2E2F5F5F5F5F5F5F5F5E2E2E2E2E2E2E2E2E2E2E2E2E2E2E2E2E2E2E2E2E2E2E2E2E2F5F5F5F5E2F5E2CDE2F5E2E2F5E2E2E2E2E2E2E2E2E2E2E2E2E2E2E2E2E2E2E2E2E2E2E2E2F5F5F5F5F5F5F5F5F5F5F5F5F5F5E2E2E2E2E2E2E2E2E2E2E2E2E2E2E2E2F5F5F5F5F5F5F5F5E2E2E2E2E2
310
E2E2E2E2E2E2E2E2E2E2E2E2E2E2E2E2E2E2E2E2F5F5F5F5E2F5E200E2F5E2E2F5F5E2E2E2E2E2E2E2E2E2E2E2E2E2E2E2E2E2E2E2E2E2E2F5F5F5F5F5F5F5F5F5F5F5F5F5E2E2E2E2E2E2E2E2E2E2E2E2E2E2E2E2E2E2E2E2F5F5F5F5F5F5F5E2E2E2E2E2E2E2E2E2E2E2E2E2E2E2E2E2E2E2E2E2E2E2E2F5F5F5F5E2F5E2
310
CDE2F5E2E2F5F5E2E2E2E2E2E2E2E2E2E2E2E2E2E2E2E2E2E2E2E2E2E2F5F5F5F5F5F5F5F5F5F5F5F5F5E2E2E2E2E2E2E2E2E2E2E2E2E2E2E2E2E2E2E2E2F5F5F5F5F5F5F5E2E2E2E2E2E2E2E2E2E2E2E2E2E2E2E2E2E2E2E2E2E2E2E2F5F5F5F5E2F5E200E2F5E2E2F5F5E2E2E2E2E2E2E2E2E2E2E2E2E2E2E2E2E2E2E2E2
310
E2E2F5F5F5F5F5F5F5F5F5F5F5F5F5E2E2E2E2E2E2E2E2E2E2E2E2E2E2E2E2E2E2E2E2F5F5F5F5F5F5F5E2E2E2E2E2E2E2E2E2E2E2E2E2E2E2E2E2E2E2E2E2E2E2E2F5F5F5F5E2F5E2CDE2F5E2E2F5F5F5F5F5F5F5F5F5F5F5F5F5F5F5F5F5F5F5F5F5F5F5F5F5F5F5F5F5F5F5F5F5F5F5F5F5F5F5F5F5F5F5F5F5F5F5F5F5
310
F5F5F5F5F5F5F5F5F5F5F5F5F5F5F5F5F5F5F5F5F5F5F5F5F5F5F5F5F5F5F5F5F5F5F5F5F5F5F5F5F5F5F5E2F5E200E2F5E2E2F5F5F5F5F5F5F5F5F5F5F5F5F5F5F5F5F5E2E2E2E2E2F5F5F5F5F5F5F5F5F5F5F5F5F5F5F5F5F5F5F5F5F5F5F5F5F5F5F5F5F5F5F5F5F5F5F5F5F5F5F5F5F5F5F5F5F5F5F5F5F5F5F5F5F5F5
310
F5F5F5F5F5F5F5F5F5F5F5F5F5F5F5F5E2F5E2CDE2F5E2E2F5F5F5F5F5F5F5F5F5F5F5F5F5F5F5F5E25E5E5E5E5EF5F5F5F5F5F5F5F5F5F5F5F5F5F5F5F5F5F5F5F5F5F5F5F5F5F5F5F5F5F5F5F5F5F5F5F5F5F5F5F5F5F5F5F5F5F5F5F5F5F5F5F5F5F5F5F5F5F5F5F5F5F5F5F5F5F5F5F5F5F5E2F5E200E2F5E2E2F5F5F5
310
F5F5F5F5F5F5F5F5F5F5F5F5F5E25EF55E5E5EF5F5F5F5F5F5F5F5F5F5F5F5F5F5F5F5F5F5F5F5F5F5F5F5F5F5F5F5F5F5F5F5F5F5F5F5F5F5F5F5F5F5F5F5F5F5F5F5F5F5F5F5F5F5F5F5F5F5F5F5F5F5F5F5F5F5F5F5F5F5E2F5E2CDE2F5E2E2F5F5F5F5F5F5F5F5F5F5F5F5F5F5F5E2E25E5E5E5E5EF5F5F5F5F5F5F5F5
310
F5F5F5F5F5F5F5F5F5F5F5F5F5F5F5F5F5F5F5F5F5F5F5F5F5F5F5F5F5F5F5F5F5F5F5F5F5F5F5F5F5F5F5F5F5F5F5F5F5F5F5F5F5F5F5F5F5F5F5F5F5F5E2F5E200E2F5E2E2F5F5F5F5F5F5F5F5F5F5F5F5F5F5E2E25E5E5E5E5E5EF5F5F5F5F5F5F5F5F5F5F5F5F5F5F5F5F5F5F5F5F5F5F5F5F5E2E2E2E2E2E2E2F5F5F5
310
F5F5F5F5F5F5F5F5F5F5F5F5F5F5F5F5F5F5F5F5F5F5F5F5F5F5F5F5F5F5F5F5F5F5F5E2F5E2CDE2F5E2E2F5F5F5F5F5F5F5F5F5F5F5F5F5F5E25E5E5E5E5EF55EF5F5F5F5F5F5F5F5F5F5F5F5F5F5F5F5F5F5F5F5F5F5F5F5F5E25EF55EF55E5EF5F5F5F5F5F5F5F5F5F5F5F5F5F5F5F5F5F5F5F5F5F5F5F5F5F5F5F5F5F5
310
F5F5F5F5F5F5F5F5E2F5E200E2F5E2E2F5F5F5F5F5F5F5F5F5F5F5F5E2E25E5EF55E5EF55E5EF5F5F5F5F5F5F5F5F5F5F5F5F5F5F5F5F5F5F5F5F5F5F5F5F5E2F55EF55EF55EF5F5F5F5F5F5F5F5F5F5F5F5F5F5F5F5F5F5F5F5F5F5F5F5F5F5F5F5F5F5F5F5F5F5F5F5F5F5E2F5E2CDE2F5E2E2F5F5F5F5F5F5F5F5F5F5F5
310
F5E25E5EF55E5EF55E5E5EF5F5F5F5F5F5F5F5F5F5F5F5F5F5F5F5F5F5F5F5F5F5F5F5E25E5EF55EF55E5EF5F5F5F5F5F5F5F5F5F5F5F5F5F5F5F5F5F5F5F5F5F5F5F5F5F5F5F5F5F5F5F5F5F5F5F5F5F5E2F5E200E2F5E2E2F5F5F5F5F5F5F5F5F5F5F5F5E25EF55EF55E5E5EF55EF5F5F5F5F5F5F5F5F5F5F5F5F5F5F5F5
310
F5F5F5F5F5F5E2E25E5EF55EF55E5E5EF5F5F5F5F5F5F5F5F5F5F5F5F5F5F5F5F5F5F5F5F5F5F5F5F5F5F5F5F5F5F5F5F5F5F5F5F5F5E2F5E2CDE2F5E2E2F5F5F5F5F5F5F5F5F5F5F5F5E25E5EF55E5E5EF55E5EF5F5F5F5F5F5F5F5F5F5F5F5F5F5F5F5F5F5F5F5F5E25EF55EF55EF55E5EF55EF5F5F5F5F5F5F5F5F5F5F5
310
F5F5F5F5F5F5E2E2E2E2E2E2E2E2E2E2E2E2E2F5F5F5F5F5F5F5F5E2F5E200E2F5E2E2F5F5F5F5F5F5F5F5F5F5F5F5E25EF55E5E5EF55E5E5EF5F5F5F5F5F5F5F5F5F5F5F5F5F5F5F5F5F5F5E2E2E2F55EF55EF55E5EF55E5EF5F5F5F5F5F5F5F5F5F5F5F5F5F5F5F5F5E25E5E5E5E5E5E5E5E5E5E5E5EF5F5F5F5F5F5F5F5
310
E2F5E2CDE2F5E2E2F5F5F5F5F5F5F5F5F5F5F5F5E2F55E5E5EF5F55EF55EF5F5F5F5F5F5F5F5F5F5F5F5F5F5F5F5F5F5F5E25EF55EF55EF55E5EF55E5E5EF5F5F5F5F5F5F5F5F5F5F5F5F5F5F5F5F5E25EF55E5EF55E5EF55E5EF55EF5F5F5F5F5F5F5F5E2F5E200E2F5F5E2F5F5F5F5F5F5F5F5F5F5F5E25E5E5E5EF5F55E
310
5EF55EF5F5F5F5F5F5F5F5F5F5F5F5F5F5F5F5F5F5F5E25E5EF55E5E5E5EF55E5EF55EF5F5F5F5F5F5F5F5F5F5F5F5F5F5F5F5F5E25E5E5EF55E5EF55E5EF55E5EF5F5F5F5F5F5F5F5E2F5E233E2F5F5E2F5F5F5F5F5F5F5F5F5F5F5E25E5E5EF5F55E5E5E5E5EF5F5F5F5F5F5F5F5F5F5F5F5F5F5F5F5F5F5F5E25EF55E5E
310
F55EF55E5EF55E5EF5F5F5F5F5F5F5F5F5F5F5F5F5F5F5F5F5E25EF5F55E5EF55E5EF55E5E5EF5F5F5F5F5F5F5F5E2F5E200E2F5F5E2F5F5F5F5F5F5F5F5F5F5F5E25E5EF5F5BE5E5EF55E5EF5F5F5F5F5F5F5F5F5F5F5F5F5F5F5F5F5F5F5E25E5E5EF55EF55E5EF55E5E5EF5F5F5F5F5F5F5F5F5F5F5F5F5F5F5F5F5E2F5
310
F55EF55E5E5EF55E5EF55EF5F5F5F5F5F5F5F5E2F5E200E2F5F5E2F5F5F5F5F5F5F5F5F5F5F5E25EF5BEBEBEBEBE5EF55EF5F5F5F5F5F5F5F5F5F5F5F5F5F5F5F5F5F5F5E25E5EF55EF55E5EF55E5EF55EF5F5F5F5F5F5F5F5F5F5F5F5F5F5F5F5F5E2F55EF55EF55EF55E5EF55E5EF5F5F5F5F5F5F5F5E2F5E208E2F5F5E2
310
F5F5F5F5F5F5F5F5F5F5F5E2F5F5BEBEBEBEBEF55E5EF5F5F5F5F5F5F5F5F5F5F5F5F5F5F5F5F5F5F5E25EF55EF55E5EF55E5EF55E5EF5F5F5F5F5F5F5F5F5F5F5F5F5F5F5F5F5E2E2F55EF55EF55E5EF55E5E5EF5F5F5F5F5F5F5F5E2F5E233E2F5F5E2F5F5F5F5F5F5F5F5F5F5F5E2F55E5EF55E5EF55E5E5EF5F5F5F5F5
310
F5F5F5F5F5F5F5F5F5F5F5F5F5E25EF55EF5BEBEBEBEBEF55E5E5EF5F5F5F5F5F5F5F5F5F5F5F5F5F5F5F5F5F5E25EF55EF55EBEF55E5EF55EF5F5F5F5F5F5F5F5E2F5E200E2F5F5E2F5F5F5F5F5F5F5F5F5F5F5E25E5EF55E5EF55E5EF55EF5F5F5F5F5F5F5F5F5F5F5F5F5F5F5F5F5F5E25E5EF55EBEBEBEBEBE5E5EF55E
310
F5F5F5F5F5F5F5F5F5F5F5F5F5F5F5F5F5F5F5E25EF5BEBEBEBEBEF55E5EF5F5F5F5F5F5F5F5E2F5E200E2F5F5E2F5F5F5F5F5F5F5F5F5F5E25E5EF55E5EF55E5EF55E5EF5F5F5F5F5F5F5F5F5F5F5F5F5F5F5F5F5E2E25EF55E5EF55EBEF55E5EF55E5EF5F5F5F5F5F5F5F5F5F5F5F5F5F5F5F5F5F5F5E25E5E5EBEBEBEBE
310
5E5E5EF5F5F5F5F5F5F5F5E2F5E208E2F5F5E2F5F5F5F5F5F5F5F5F5F5E25EF55E5EF55E5EF55E5E5EF5F5F5F5F5F5F5F5F5F5F5F5F5F5F5E2E2E25EF55E5EF55E5EF55E5EF55E5E5EF5F5F5F5F5F5F5F5F5F5F5F5F5F5F5F5F5F5F5F5E25E5EF55EF55E5EF55EF5F5F5F5F5F5F5F5E2F5E233E2F5F5E2F5F5F5F5F5F5F5F5
310
E2E25E5E5E5EF55E5EF55E5EF55EF5F5F5F5F5F5F5F5F5F5F5F5F5F5E2E25E5EF55E5EF55E5EF55E5EF55E5EF55EF5F5F5F5F5F5F5F5F5F5F5F5F5F5F5F5F5F5F5F5E25EF55EF55E5EF55E5EF5F5F5F5F5F5F5F5E2F5E200E2F5E2E2F5F5F5F5F5F5F5E25EF55EF55EF55E5EF55E5EF55E5EF5F5F5F5F5F5F5F5F5F5F5F5F5
310
F5E25E5EF55E5EF55E5EF55EF55E5E5EF55E5EF5F5F5F5F5F5F5F5F5F5F5F5F5F5F5F5F5F5F5F5E2F55EF55E5EF55E5E5EF5F5F5F5F5F5F5F5E2F5E200E2F5E2E2F5F5F5F5F5F5F5E2F55EF55EF55E5EF55E5EF55E5E5EF5F5F5F5F5F5F5F5F5F5F5F5F5F5E25EF55E5EF55E5EF55EF55E5E5EF55E5E5EF5F5F5F5F5F5F5F5
310
F5F5F5F5F5F5F5F5F5F5F5F5E25EF55E5EF55E5EF55EF5F5F5F5F5F5F5F5E2F5E208E2F5E2E2F5F5F5F5F5F5F5E25EF55EF55E5EF55E5EF55E5EF55EF5F5F5F5F5F5F5F5F5F5F5F5F5F5E25E5E5EF55E5EF55EF55E5E5EF55E5EF55EF5F5F5F5F5F5F5F5F5F5F5F5F5F5F5F5F5F5F5F5E25E5E5EF5F55EF55E5EF5F5F5F5F5
310
F5F5F5E2F5E233E2F5E2E2F5F5F5F5F5F5F5E2F55EF55E5EF55E5EF5F55EF55E5EF5F5F5F5F5F5F5F5F5F5F5F5F5F5E2E25E5E5E5EF55EF55E5E5EF5F55E5E5E5EF5F5F5F5F5F5F5F5F5F5F5F5F5F5F5F5F5F5F5F5E25E5EF5F55EF55EF55EF5F5F5F5F5F5F5F5E2F5E200E2F5E2E2F5F5F5F5F5F5F5E2E25E5E5EF55E5EF5
310
F55EF55E5E5EF5F5F5F5F5F5F5F5F5F5F5F5F5F5F5E2E2E2E2E25E5E5E5E5EF5F55E5E5E5E5EF5F5F5F5F5F5F5F5F5F5F5F5F5F5F5F5F5F5F5F5F5E2F5F55EF55EF55E5EF5F5F5F5F5F5F5F5E2F5E200E2F5E2E2F5F5F5F5F5F5F5F5F5E2E2E2E2E25EF55EF55E5EF55EF5F5F5F5F5F5F5F5F5F5F5F5F5F5F5F5F5F5F5F5E2
310
E2E25E5E5E5E5E5E5EF55EF5F5F5F5F5F5F5F5F5F5F5F5F5F5F5F5F5F5F5F5F5E2F55EF55E5E5EF55EF5F5F5F5F5F5F5F5E2F5E208E2F5E2E2F5F5F5F5F5F5F5F5F5F5F5F5F5E2E2E2E25E5EF5F55EF5F5F5F5F5F5F5F5F5F5F5F5F5F5F5F5F5F5F5F5F5F5F5E2E2E25E5E5E5EF55EF5F5F5F5F5F5F5F5F5F5F5F5F5F5F5F5
310
F5F5F5F5F5E2E2E25E5EF5F55E5EF5F5F5F5F5F5F5F5E2F5E233E2F5E2E2F5F5F5F5F5F5F5F5F5F5F5F5F5F5F5F5F5E2E2E2E25EF5F5F5F5F5F5F5F5F5F5F5F5F5F5F5F5F5F5F5F5F5F5F5F5F5F5E2E2E2E2E25EF5F5F5F5F5F5F5F5F5F5F5F5F5F5F5F5F5F5F5F5F5F5F5F5E2E2E2E25E5EF5F5F5F5F5F5F5F5E2F5E200E2
310
F5E2E2F5F5F5F5F5F5F5F5F5F5F5F5F5F5F5F5F5F5F5F5F5E2F5F5F5F5F5F5F5F5F5F5F5F5F5F5F5F5F5F5F5F5F5F5F5F5F5F5F5F5F5F5E2E2F5F5F5F5F5F5F5F5F5F5F5F5F5F5F5F5F5F5F5F5F5F5F5F5F5F5F5F5E2E2F5F5F5F5F5F5F5F5E2F5E200E2F5E2E2F5F5F5F5F5F5F5F5F5F5F5F5F5F5F5F5F5F5F5F5F5F5F5F5
310
F5F5F5F5F5F5F5F5F5F5F5F5F5F5F5F5F5F5F5F5F5F5F5F5F5F5F5F5F5F5F5F5F5F5F5F5F5F5F5F5F5F5F5F5F5F5F5F5F5F5F5F5F5F5F5F5F5F5F5F5F5F5F5F5F5F5F5F5E2F5E200E2F5E2E2F5F5E2E2E2E2E2E2E2E2E2E2E2E2E2E2E2E2E2E2E2E2E2E2E2E2E2F5F5F5F5F5F5E2E2E2E2E2E2E2E2E2E2E2E2E2E2E2E2E2E2
310
E2E2E2E2E2E2F5F5F5F5F5F5E2E2E2E2E2E2E2E2E2E2E2E2E2E2E2E2E2E2E2E2E2E2E2E2E2F5F5F5F5E2F5E27EE2F5E2E2F5F5E2E2E2E2E2E2E2E2E2E2E2E2E2E2E2E2E2E2E2E2E2E2E2E2E2F5F5F5F5F5F5E2E2E2E2E2E2E2E2E2E2E2E2E2E2E2E2E2E2E2E2E2E2E2E2F5F5F5F5F5F5E2E2E2E2E2E2E2E2E2E2E2E2E2E2E2
310
E2E2E2E2E2E2E2E2E2E2F5F5F5F5E2F5E27EE2F5E2E2F5F5E2E2E2E2E2E2E2E2E2E2E2E2E2E2E2E2E2E2E2E2E2E2E2E2E2F5F5F5F5F5F5E2E2E2E2E2E2E2E2E2E2E2E2E2E2E2E2E2E2E2E2E2E2E2E2F5F5F5F5F5F5E2E2E2E2E2E2E2E2E2E2E2E2E2E2E2E2E2E2E2E2E2E2E2E2E2F5F5F5F5E2F5E200E2F5E2E2F5F5F5F5E2
310
E2E2E2E2E2E2E2E2E2E2E2E2E2E2E2E2E2E2E2E2F5F5F5F5F5F5F5F5F5E2E2E2E2E2E2E2E2E2E2E2E2E2E2E2E2E2E2E2E2E2E2F5F5F5F5F5F5F5F5F5E2E2E2E2E2E2E2E2E2E2E2E2E2E2E2E2E2E2E2E2E2E2F5F5F5F5F5E2F5E200E2F5E2E2F5F5F5F5E2E2E2E2E2E2E2E2E2E2E2E2E2E2E2E2E2E2E2E2E2F5F5F5F5F5F5F5
310
F5F5E2E2E2E2E2E2E2E2E2E2E2E2E2E2E2E2E2E2E2E2E2E2F5F5F5F5F5F5F5F5F5E2E2E2E2E2E2E2E2E2E2E2E2E2E2E2E2E2E2E2E2E2E2F5F5F5F5F5E2F5E2CDE2F5E2E2F5F5F5F5E2E2E2E2E2E2E2E2E2E2E2E2E2E2E2E2E2E2E2E2E2F5F5F5F5F5F5F5F5F5E2E2E2E2E2E2E2E2E2E2E2E2E2E2E2E2E2E2E2E2E2E2F5F5F5
310
F5F5F5F5F5F5E2E2E2E2E2E2E2E2E2E2E2E2E2E2E2E2E2E2E2E2E2E2F5F5F5F5F5E2F5E200E2F5E2E2F5F5F5F5F5F5F5F5F5F5F5F5F5F5F5F5F5F5F5F5F5F5F5F5F5F5F5F5F5F5F5F5F5F5F5F5F5F5F5F5F5F5F5F5F5F5F5F5F5F5F5F5F5F5F5F5F5F5F5F5F5F5F5F5F5F5F5F5F5F5F5F5F5F5F5F5F5F5F5F5F5F5F5F5F5F5
310
F5F5F5F5F5F5E2F5E2CDE2F5F5E2F5F5F5F5F5F5F5F5F5F5F5F5F5F5F5F5F5F5F5F5F5F5F5F5F5F5F5F5F5F5F5F5F5F5F5F5F5F5F5F5F5F5F5F5F5F5F5F5F5F5F5F5F5F5F5F5F5F5F5F5F5F5F5F5F5F5F5F5F5F5F5F5F5F5F5F5F5F5F5F5F5F5F5F5F5F5F5F5F5F5F5F5E2F5E200E2F5F5E2F5F5F5F5F5F5F5F5F5F5F5F5F5
310
F5F5F5F5F5F5F5F5F5F5F5F5F5F5F5F5F5F5F5F5F5F5F5F5F5F5F5F5F5F5F5F5F5F5F5F5F5F5F5F5F5F5F5F5F5F5F5F5F5F5F5F5F5F5F5F5F5F5F5F5F5F5F5F5F5F5F5F5F5F5F5F5F5F5F5F5F5F5F5E2F5E2CDE2F5F5E2F5F5F5F5F5F5F5F5F5F5F5F5F5F5F5F5F5F5F5F5F5F5F5F5F5F5F5F5F5F5F5F5F5F5F5F5F5F5F5F5
310
F5F5F5F5F5F5F5F5F5F5F5F5F5F5F5F5F5F5F5F5F5F5F5F5F5F5F5F5F5F5F5F5F5F5F5F5F5F5F5F5F5F5F5F5F5F5F5F5F5F5F5F5E2F5E200E2F5F5E2F5F5F5F5F5F5F5F5F5F5F5F5F5F5F5F5F5F5F5F5F5F5F5F5F5F5F5F5F5F5F5F5F5F5F5F5F5F5F5F5F5F5F5F5F5F5F5F5F5F5F5F5F5F5F5F5F5F5F5F5F5F5F5F5F5F5F5
310
F5F5F5F5F5F5F5F5F5F5F5F5F5F5F5F5F5F5F5F5F5F5F5F5F5E2F5E2CDE2F5F5E2F5F5F5F5F5F5F5F5F5F5F5F5F5F5F5F5F5F5F5F5F5F5F5F5F5F5F5F5F5F5F5F5F5F5F5F5F5F5F5F5F5F5F5F5F5F5F5F5F5F5F5F5F5F5F5F5F5F5F5F5F5F5F5F5F5F5F5F5F5F5F5F5F5F5F5F5F5F5F5F5F5F5F5F5F5F5F5F5F5F5F5F5E2F5
310
E200E2F5F5E2F5F5F5F5F5F5F5F5F5F5F5F5F5F5F5F5F5F5F5F5F5F5F5F5F5F5F5F5F5F5F5F5F5F5F5F5F5F5F5F5F5F5F5F5F5F5F5F5F5F5F5F5F5F5F5F5F5F5F5F5F5F5F5F5F5F5F5F5F5F5F5F5F5F5F5F5F5F5F5F5F5F5F5F5F5F5F5F5F5F5F5F5E2F5E2CDE2F5F5E2F5F5F5F5F5F5F5F5F5F5F5F5F5F5F5F5F5F5F5F5F5
310
F5F5F5F5F5F5F5F5F5F5F5F5F5F5F5F5F5F5F5F5F5F5F5F5F5F5F5F5F5F5F5F5F5F5F5F5F5F5F5F5F5F5F5F5F5F5F5F5F5F5F5F5F5F5F5F5F5F5F5F5F5F5F5F5F5F5F5F5F5F5F5E2F5E200E2F5F5E2F5F5F5F5F5F5F5F5F5F5F5F5F5F5F5F5F5F5F5F5F5F5F5F5F5F5F5F5F5F5F5F5F5F5F5F5F5F5F5F5F5F5F5F5F5F5F5F5
310
F5F5F5F5F5F5F5F5F5F5E2E2E2E2E2E2E2E2E2E2E2E2E2E2E2E2E2E2E2E2E2E2E2E2E2E2E2E2E2E2F5F5F5F5E2F5E2CDE2F5F5E2E2E2E2E2E2E2E2E2E2E2E2E2E2E2E2F5F5F5F5F5F5F5F5F5F5F5F5F5F5F5F5F5F5F5F5F5F5F5F5F5F5F5F5F5F5F5F5F5F5F5F5F5F5F5F5F5F5F5E2F5F5F5F5F5F5F5F5F5F5E2E2E2E2E2E2
310
E2E2E2E2E2E2E2E2E2F5F5F5E2F5F5F5F5E2F5E200E2F5F5E2E2E2E2E2E2E2E2E2E2E2E2E2E2E2E2F5F5F5F5F5F5F5F5F5F5F5F5F5F5F5F5F5F5F5F5F5F5F5F5F5F5F5F5F5F5F5F5F5F5F5F5F5F5F5F5F5F5F5E2F5F5F5F5F5F5F5F5F5F5E2E2E2E2E2E2E2E2E2E2E2E2E2E2E2F5F5F5E2F5F5F5F5E2F5E2CDE2F5E2E2E2E2
310
E2E2E2E2E2E2E2E2E2E2E2E2E2F5F5F5F5F5F5F5F5F5F5F5F5F5F5F5F5F5F5F5F5F5F5F5F5F5F5F5F5F5F5F5F5F5F5F5F5F5F5F5F5F5F5F5E2F5E2E2E2E2E2E2E2E2E2F5E2E2E2E2E2E2E2E2E2E2E2E2E2F5F5F5F5E2F5F5F5F5E2F5E200E2F5E2E2E2E2E2E2E2E2E2E2E2E2E2E2E2E2E2F5F5F5F5F5F5F5F5F5F5F5F5F5F5
310
F5F5F5F5F5F5F5F5F5F5F5F5F5F5F5F5F5F5F5F5F5F5F5F5F5F5F5F5F5E2F5F5F5F5F5F5F5F5F5F5F5E2E2E2E2E2E2E2E2E2E2E2E2E2F5F5F5F5E2F5F5F5F5E2F5E2CDE2F5E2E2E2E2E2E2E2E2E2E2E2E2E2E2E2E2E2E2E2E2E2E2E2E2E2E2E2F5F5F5F5F5F5F5F5F5F5F5F5F5F5F5F5F5F5F5F5F5F5F5F5F5F5F5F5F5F5F5
310
F5F5E2F5F5F5F5F5F5F5F5F5F5F5E2E2E2E2E2E2E2E2E2E2E2E2E2F5F5F5F5E2F5F5F5F5E2F5E200E2F5E2E2E2E2E2E2E2E2E2E2E2E2E2E2E2E2E2E2E2E2E2E2E2E2E2E2E2F5F5F5F5F5F5F5F5F5F5F5F5F5F5F5F5F5F5F5F5F5F5F5F5F5F5F5F5F5F5F5F5F5E2F5F5F5F5F5F5F5F5F5F5F5F5F5F5F5F5F5F5F5F5F5F5F5F5
310
F5F5F5F5E2F5F5F5F5E2F5E2CDE2F5E2E2E2E2E2E2E2E2E2E2E2E2E2E2E2E2E2E2E2E2E2E2E2E2E2E2E2F5F5F5F5F5F5F5F5F5F5F5F5F5F5F5F5F5F5F5F5F5F5F5F5F5F5F5F5F5F5F5F5F5E2E2E2E2E2E2E2E2E2E2E2E2E2E2E2E2E2E2E2E2E2E2E2E2E2E2E2E2E2E2F5F5F5F5E2F5E200E2F5E2E2E2E2E2E2E2E2E2E2E2E2
310
E2E2E2E2E2E2E2E2E2E2E2E2E2E2E2F5F5F5F5F5F5F5F5F5F5F5F5F5F5F5F5F5F5F5F5F5F5F5F5F5F5F5F5F5F5F5F5F5F5F5F5F5F5F5F5F5F5F5F5F5F5F5F5F5F5F5F5F5F5F5F5F5F5F5F5F5F5F5F5F5F5F5E2F5E2CDE2F5E2E2E2E2E2E2E2E2E2E2E2E2E2E2E2E2E2E2E2E2E2E2E2E2E2E2E2E2E2E2E2E2E2E2E2E2E2E2E2
310
E2E2E2E2E2E2E2E2E2E2E2E2E2E2E2E2E2E2E2E2E2E2E2E2E2E2E2E2E2E2E2E2E2E2E2E2E2E2E2E2E2E2E2E2E2E2E2E2E2E2E2E2E2E2E2E2F5E200E2F5E2F5F5F5F5F5F5F5F5F5F5F5F5F5F5F5F5F5F5F5F5F5F5F5F5F5F5F5F5F5F5F5F5F5F5F5F5F5F5F5F5F5F5F5F5F5F5F5F5F5F5F5F5F5F5F5F5F5F5F5F5F5F5F5F5F5
310
F5F5F5F5F5F5F5F5F5F5F5F5F5F5F5F5F5F5F5F5F5F5F5F5F5F5F5F5E2F5E200E2F5E2E2E2E2E2E2E2E2F5F5F5F5F5F5F5F5E2E2E2E2E2E2E2E2E2E2E2E2E2E2E2E2F5F5F5F5F5F5F5F5E2E2E2E2E2E2E2E2E2E2E2E2E2E2E2F5F5F5F5F5F5F5F5E2E2E2E2E2E2E2E2E2E2E2E2E2E2E2E2F5F5F5F5F5F5F5F5E2E2E2E2E2E2
310
E2E2F5E200E2E2E2E2E2E2E2E2E2E2E2E2E2E2E2E2E2E2E2E2E2E2E2E2E2E2E2E2E2E2E2E2E2E2E2E2E2E2E2E2E2E2E2E2E2E2E2E2E2E2E2E2E2E2E2E2E2E2E2E2E2E2E2E2E2E2E2E2E2E2E2E2E2E2E2E2E2E2E2E2E2E2E2E2E2E2E2E2E2E2E2E2E2E2E2E2E2E2E200E2E2E2E2E2E2E2E2E2E2E2E2E2E2E2E2E2E2E2E2E2E2
310
E2E2E2E2E2E2E2E2E2E2E2E2E2E2E2E2E2E2E2E2E2E2E2E2E2E2E2E2E2E2E2E2E2E2E2E2E2E2E2E2E2E2E2E2E2E2E2E2E2E2E2E2E2E2E2E2E2E2E2E2E2E2E2E2E2E2E2E2E2E2E2E2E2E2E2E2E200
  0
XRECORD
  5
719
102
{ACAD_REACTORS
330
718
102
}
330
718
100
AcDbXrecord
280
     1
102
MATERIAL
148
0.0
149
0.0
149
0.0
 93
        0
 94
       63
282
     0
 72
     1
 77
     1
171
     1
175
     1
179
     1
273
     0
  0
XRECORD
  5
717
102
{ACAD_REACTORS
330
716
102
}
330
716
100
AcDbXrecord
280
     1
102
MATERIAL
148
0.0
149
0.0
149
0.0
 93
        0
 94
       63
282
     0
 72
     1
 77
     1
171
     1
175
     1
179
     1
273
     0
  0
XRECORD
  5
71B
102
{ACAD_REACTORS
330
71A
102
}
330
71A
100
AcDbXrecord
280
     1
102
MATERIAL
148
0.0
149
0.0
149
0.0
 93
        0
 94
       63
282
     0
 72
     1
 77
     1
171
     1
175
     1
179
     1
273
     0
  0
XRECORD
  5
F95C
102
{ACAD_REACTORS
330
F95B
102
}
330
F95B
100
AcDbXrecord
280
     1
102
ACAD_ROUNDTRIP_PRE2007_TABLESTYLE
 90
      512
 91
        0
  1

 92
      512
 93
        0
  2

 94
      512
 95
        0
  3

  0
ENDSEC
  0
EOF
